ISO-10303-21;
HEADER;
/* Generated by software containing ST-Developer
 * from STEP Tools, Inc. (www.steptools.com) 
 */
/* OPTION: using custom renumber hook */

FILE_DESCRIPTION(
/* description */ ('STEP AP203'),
/* implementation_level */ '2;1');

FILE_NAME(
/* name */ 'Swivel Joint DGNS 50 60.3x2.9',
/* time_stamp */ '2024-11-07T08:17:57+01:00',
/* author */ ('License CC BY-ND 4.0'),
/* organization */ ('CADENAS'),
/* preprocessor_version */ 'ST-DEVELOPER v19.3',
/* originating_system */ 'PARTsolutions',
/* authorisation */ '  ');

FILE_SCHEMA (('CONFIG_CONTROL_DESIGN'));
ENDSEC;

DATA;
#10=PROPERTY_DEFINITION_REPRESENTATION(#14,#12);
#11=PROPERTY_DEFINITION_REPRESENTATION(#15,#13);
#12=REPRESENTATION('',(#16),#397);
#13=REPRESENTATION('',(#17),#397);
#14=PROPERTY_DEFINITION('pmi validation property','',#402);
#15=PROPERTY_DEFINITION('pmi validation property','',#402);
#16=VALUE_REPRESENTATION_ITEM('number of annotations',COUNT_MEASURE(0.));
#17=VALUE_REPRESENTATION_ITEM('number of views',COUNT_MEASURE(0.));
#18=SHAPE_REPRESENTATION_RELATIONSHIP('','',#229,#19);
#19=ADVANCED_BREP_SHAPE_REPRESENTATION('',(#227),#397);
#20=TOROIDAL_SURFACE('',#252,33.05,2.89999999999999);
#21=TOROIDAL_SURFACE('',#256,56.,2.99999999999999);
#22=TOROIDAL_SURFACE('',#260,56.,3.00000000000002);
#23=TOROIDAL_SURFACE('',#264,33.05,2.90000000000001);
#24=CYLINDRICAL_SURFACE('',#236,27.25);
#25=CYLINDRICAL_SURFACE('',#240,25.);
#26=CYLINDRICAL_SURFACE('',#244,27.25);
#27=CYLINDRICAL_SURFACE('',#250,30.15);
#28=CYLINDRICAL_SURFACE('',#258,59.);
#29=CYLINDRICAL_SURFACE('',#266,30.15);
#30=PLANE('',#234);
#31=PLANE('',#246);
#32=PLANE('',#254);
#33=PLANE('',#262);
#34=ORIENTED_EDGE('',*,*,#70,.T.);
#35=ORIENTED_EDGE('',*,*,#71,.F.);
#36=ORIENTED_EDGE('',*,*,#72,.T.);
#37=ORIENTED_EDGE('',*,*,#70,.F.);
#38=ORIENTED_EDGE('',*,*,#73,.T.);
#39=ORIENTED_EDGE('',*,*,#72,.F.);
#40=ORIENTED_EDGE('',*,*,#74,.T.);
#41=ORIENTED_EDGE('',*,*,#73,.F.);
#42=ORIENTED_EDGE('',*,*,#75,.T.);
#43=ORIENTED_EDGE('',*,*,#74,.F.);
#44=ORIENTED_EDGE('',*,*,#76,.T.);
#45=ORIENTED_EDGE('',*,*,#75,.F.);
#46=ORIENTED_EDGE('',*,*,#77,.T.);
#47=ORIENTED_EDGE('',*,*,#76,.F.);
#48=ORIENTED_EDGE('',*,*,#78,.T.);
#49=ORIENTED_EDGE('',*,*,#77,.F.);
#50=ORIENTED_EDGE('',*,*,#79,.T.);
#51=ORIENTED_EDGE('',*,*,#78,.F.);
#52=ORIENTED_EDGE('',*,*,#80,.T.);
#53=ORIENTED_EDGE('',*,*,#79,.F.);
#54=ORIENTED_EDGE('',*,*,#80,.F.);
#55=ORIENTED_EDGE('',*,*,#81,.T.);
#56=ORIENTED_EDGE('',*,*,#82,.T.);
#57=ORIENTED_EDGE('',*,*,#81,.F.);
#58=ORIENTED_EDGE('',*,*,#83,.T.);
#59=ORIENTED_EDGE('',*,*,#82,.F.);
#60=ORIENTED_EDGE('',*,*,#84,.T.);
#61=ORIENTED_EDGE('',*,*,#83,.F.);
#62=ORIENTED_EDGE('',*,*,#85,.T.);
#63=ORIENTED_EDGE('',*,*,#84,.F.);
#64=ORIENTED_EDGE('',*,*,#86,.T.);
#65=ORIENTED_EDGE('',*,*,#85,.F.);
#66=ORIENTED_EDGE('',*,*,#86,.F.);
#67=ORIENTED_EDGE('',*,*,#87,.T.);
#68=ORIENTED_EDGE('',*,*,#71,.T.);
#69=ORIENTED_EDGE('',*,*,#87,.F.);
#70=EDGE_CURVE('',#88,#88,#106,.T.);
#71=EDGE_CURVE('',#89,#89,#107,.T.);
#72=EDGE_CURVE('',#90,#90,#108,.T.);
#73=EDGE_CURVE('',#91,#91,#109,.T.);
#74=EDGE_CURVE('',#92,#92,#110,.T.);
#75=EDGE_CURVE('',#93,#93,#111,.T.);
#76=EDGE_CURVE('',#94,#94,#112,.T.);
#77=EDGE_CURVE('',#95,#95,#113,.T.);
#78=EDGE_CURVE('',#96,#96,#114,.T.);
#79=EDGE_CURVE('',#97,#97,#115,.T.);
#80=EDGE_CURVE('',#98,#98,#116,.T.);
#81=EDGE_CURVE('',#99,#99,#117,.T.);
#82=EDGE_CURVE('',#100,#100,#118,.T.);
#83=EDGE_CURVE('',#101,#101,#119,.T.);
#84=EDGE_CURVE('',#102,#102,#120,.T.);
#85=EDGE_CURVE('',#103,#103,#121,.T.);
#86=EDGE_CURVE('',#104,#104,#122,.T.);
#87=EDGE_CURVE('',#105,#105,#123,.T.);
#88=VERTEX_POINT('',#344);
#89=VERTEX_POINT('',#346);
#90=VERTEX_POINT('',#349);
#91=VERTEX_POINT('',#352);
#92=VERTEX_POINT('',#355);
#93=VERTEX_POINT('',#358);
#94=VERTEX_POINT('',#361);
#95=VERTEX_POINT('',#364);
#96=VERTEX_POINT('',#367);
#97=VERTEX_POINT('',#370);
#98=VERTEX_POINT('',#373);
#99=VERTEX_POINT('',#376);
#100=VERTEX_POINT('',#379);
#101=VERTEX_POINT('',#382);
#102=VERTEX_POINT('',#385);
#103=VERTEX_POINT('',#388);
#104=VERTEX_POINT('',#391);
#105=VERTEX_POINT('',#394);
#106=CIRCLE('',#232,28.7);
#107=CIRCLE('',#233,30.15);
#108=CIRCLE('',#235,27.25);
#109=CIRCLE('',#237,27.25);
#110=CIRCLE('',#239,25.);
#111=CIRCLE('',#241,25.);
#112=CIRCLE('',#243,27.25);
#113=CIRCLE('',#245,27.25);
#114=CIRCLE('',#247,28.7);
#115=CIRCLE('',#249,30.15);
#116=CIRCLE('',#251,30.15);
#117=CIRCLE('',#253,33.05);
#118=CIRCLE('',#255,56.);
#119=CIRCLE('',#257,59.);
#120=CIRCLE('',#259,59.);
#121=CIRCLE('',#261,56.);
#122=CIRCLE('',#263,33.05);
#123=CIRCLE('',#265,30.15);
#124=EDGE_LOOP('',(#34));
#125=EDGE_LOOP('',(#35));
#126=EDGE_LOOP('',(#36));
#127=EDGE_LOOP('',(#37));
#128=EDGE_LOOP('',(#38));
#129=EDGE_LOOP('',(#39));
#130=EDGE_LOOP('',(#40));
#131=EDGE_LOOP('',(#41));
#132=EDGE_LOOP('',(#42));
#133=EDGE_LOOP('',(#43));
#134=EDGE_LOOP('',(#44));
#135=EDGE_LOOP('',(#45));
#136=EDGE_LOOP('',(#46));
#137=EDGE_LOOP('',(#47));
#138=EDGE_LOOP('',(#48));
#139=EDGE_LOOP('',(#49));
#140=EDGE_LOOP('',(#50));
#141=EDGE_LOOP('',(#51));
#142=EDGE_LOOP('',(#52));
#143=EDGE_LOOP('',(#53));
#144=EDGE_LOOP('',(#54));
#145=EDGE_LOOP('',(#55));
#146=EDGE_LOOP('',(#56));
#147=EDGE_LOOP('',(#57));
#148=EDGE_LOOP('',(#58));
#149=EDGE_LOOP('',(#59));
#150=EDGE_LOOP('',(#60));
#151=EDGE_LOOP('',(#61));
#152=EDGE_LOOP('',(#62));
#153=EDGE_LOOP('',(#63));
#154=EDGE_LOOP('',(#64));
#155=EDGE_LOOP('',(#65));
#156=EDGE_LOOP('',(#66));
#157=EDGE_LOOP('',(#67));
#158=EDGE_LOOP('',(#68));
#159=EDGE_LOOP('',(#69));
#160=FACE_BOUND('',#124,.T.);
#161=FACE_BOUND('',#125,.T.);
#162=FACE_BOUND('',#126,.T.);
#163=FACE_BOUND('',#127,.T.);
#164=FACE_BOUND('',#128,.T.);
#165=FACE_BOUND('',#129,.T.);
#166=FACE_BOUND('',#130,.T.);
#167=FACE_BOUND('',#131,.T.);
#168=FACE_BOUND('',#132,.T.);
#169=FACE_BOUND('',#133,.T.);
#170=FACE_BOUND('',#134,.T.);
#171=FACE_BOUND('',#135,.T.);
#172=FACE_BOUND('',#136,.T.);
#173=FACE_BOUND('',#137,.T.);
#174=FACE_BOUND('',#138,.T.);
#175=FACE_BOUND('',#139,.T.);
#176=FACE_BOUND('',#140,.T.);
#177=FACE_BOUND('',#141,.T.);
#178=FACE_BOUND('',#142,.T.);
#179=FACE_BOUND('',#143,.T.);
#180=FACE_BOUND('',#144,.T.);
#181=FACE_BOUND('',#145,.T.);
#182=FACE_BOUND('',#146,.T.);
#183=FACE_BOUND('',#147,.T.);
#184=FACE_BOUND('',#148,.T.);
#185=FACE_BOUND('',#149,.T.);
#186=FACE_BOUND('',#150,.T.);
#187=FACE_BOUND('',#151,.T.);
#188=FACE_BOUND('',#152,.T.);
#189=FACE_BOUND('',#153,.T.);
#190=FACE_BOUND('',#154,.T.);
#191=FACE_BOUND('',#155,.T.);
#192=FACE_BOUND('',#156,.T.);
#193=FACE_BOUND('',#157,.T.);
#194=FACE_BOUND('',#158,.T.);
#195=FACE_BOUND('',#159,.T.);
#196=CONICAL_SURFACE('',#231,30.15,0.785398163397446);
#197=CONICAL_SURFACE('',#238,27.25,0.523598775598299);
#198=CONICAL_SURFACE('',#242,25.,0.523598775598298);
#199=CONICAL_SURFACE('',#248,28.7,0.785398163397446);
#200=ADVANCED_FACE('',(#160,#161),#196,.T.);
#201=ADVANCED_FACE('',(#162,#163),#30,.T.);
#202=ADVANCED_FACE('',(#164,#165),#24,.F.);
#203=ADVANCED_FACE('',(#166,#167),#197,.F.);
#204=ADVANCED_FACE('',(#168,#169),#25,.F.);
#205=ADVANCED_FACE('',(#170,#171),#198,.F.);
#206=ADVANCED_FACE('',(#172,#173),#26,.F.);
#207=ADVANCED_FACE('',(#174,#175),#31,.T.);
#208=ADVANCED_FACE('',(#176,#177),#199,.T.);
#209=ADVANCED_FACE('',(#178,#179),#27,.T.);
#210=ADVANCED_FACE('',(#180,#181),#20,.F.);
#211=ADVANCED_FACE('',(#182,#183),#32,.T.);
#212=ADVANCED_FACE('',(#184,#185),#21,.T.);
#213=ADVANCED_FACE('',(#186,#187),#28,.T.);
#214=ADVANCED_FACE('',(#188,#189),#22,.T.);
#215=ADVANCED_FACE('',(#190,#191),#33,.T.);
#216=ADVANCED_FACE('',(#192,#193),#23,.F.);
#217=ADVANCED_FACE('',(#194,#195),#29,.T.);
#218=CLOSED_SHELL('',(#200,#201,#202,#203,#204,#205,#206,#207,#208,#209,
#210,#211,#212,#213,#214,#215,#216,#217));
#219=STYLED_ITEM('',(#220),#227);
#220=PRESENTATION_STYLE_ASSIGNMENT((#221));
#221=SURFACE_STYLE_USAGE(.BOTH.,#222);
#222=SURFACE_SIDE_STYLE('',(#223));
#223=SURFACE_STYLE_FILL_AREA(#224);
#224=FILL_AREA_STYLE('',(#225));
#225=FILL_AREA_STYLE_COLOUR('',#226);
#226=COLOUR_RGB('',0.689999997615814,0.689999997615814,0.689999997615814);
#227=MANIFOLD_SOLID_BREP('Rohrdrehgelenk DGNS 50 60.3x2.9',#218);
#228=SHAPE_DEFINITION_REPRESENTATION(#402,#229);
#229=SHAPE_REPRESENTATION('Rohrdrehgelenk DGNS 50 60.3x2.9',(#230),#397);
#230=AXIS2_PLACEMENT_3D('',#341,#267,#268);
#231=AXIS2_PLACEMENT_3D('',#342,#269,#270);
#232=AXIS2_PLACEMENT_3D('',#343,#271,#272);
#233=AXIS2_PLACEMENT_3D('',#345,#273,#274);
#234=AXIS2_PLACEMENT_3D('',#347,#275,#276);
#235=AXIS2_PLACEMENT_3D('',#348,#277,#278);
#236=AXIS2_PLACEMENT_3D('',#350,#279,#280);
#237=AXIS2_PLACEMENT_3D('',#351,#281,#282);
#238=AXIS2_PLACEMENT_3D('',#353,#283,#284);
#239=AXIS2_PLACEMENT_3D('',#354,#285,#286);
#240=AXIS2_PLACEMENT_3D('',#356,#287,#288);
#241=AXIS2_PLACEMENT_3D('',#357,#289,#290);
#242=AXIS2_PLACEMENT_3D('',#359,#291,#292);
#243=AXIS2_PLACEMENT_3D('',#360,#293,#294);
#244=AXIS2_PLACEMENT_3D('',#362,#295,#296);
#245=AXIS2_PLACEMENT_3D('',#363,#297,#298);
#246=AXIS2_PLACEMENT_3D('',#365,#299,#300);
#247=AXIS2_PLACEMENT_3D('',#366,#301,#302);
#248=AXIS2_PLACEMENT_3D('',#368,#303,#304);
#249=AXIS2_PLACEMENT_3D('',#369,#305,#306);
#250=AXIS2_PLACEMENT_3D('',#371,#307,#308);
#251=AXIS2_PLACEMENT_3D('',#372,#309,#310);
#252=AXIS2_PLACEMENT_3D('',#374,#311,#312);
#253=AXIS2_PLACEMENT_3D('',#375,#313,#314);
#254=AXIS2_PLACEMENT_3D('',#377,#315,#316);
#255=AXIS2_PLACEMENT_3D('',#378,#317,#318);
#256=AXIS2_PLACEMENT_3D('',#380,#319,#320);
#257=AXIS2_PLACEMENT_3D('',#381,#321,#322);
#258=AXIS2_PLACEMENT_3D('',#383,#323,#324);
#259=AXIS2_PLACEMENT_3D('',#384,#325,#326);
#260=AXIS2_PLACEMENT_3D('',#386,#327,#328);
#261=AXIS2_PLACEMENT_3D('',#387,#329,#330);
#262=AXIS2_PLACEMENT_3D('',#389,#331,#332);
#263=AXIS2_PLACEMENT_3D('',#390,#333,#334);
#264=AXIS2_PLACEMENT_3D('',#392,#335,#336);
#265=AXIS2_PLACEMENT_3D('',#393,#337,#338);
#266=AXIS2_PLACEMENT_3D('',#395,#339,#340);
#267=DIRECTION('',(0.,0.,1.));
#268=DIRECTION('',(1.,0.,0.));
#269=DIRECTION('',(0.,0.,-1.));
#270=DIRECTION('',(-1.,0.,0.));
#271=DIRECTION('',(0.,0.,-1.));
#272=DIRECTION('',(-1.,0.,0.));
#273=DIRECTION('',(0.,0.,-1.));
#274=DIRECTION('',(-1.,0.,0.));
#275=DIRECTION('',(0.,0.,1.));
#276=DIRECTION('',(1.,0.,0.));
#277=DIRECTION('',(0.,0.,-1.));
#278=DIRECTION('',(-1.,0.,0.));
#279=DIRECTION('',(0.,0.,-1.));
#280=DIRECTION('',(-1.,0.,0.));
#281=DIRECTION('',(0.,0.,-1.));
#282=DIRECTION('',(-1.,0.,0.));
#283=DIRECTION('',(0.,0.,1.));
#284=DIRECTION('',(1.,0.,0.));
#285=DIRECTION('',(0.,0.,-1.));
#286=DIRECTION('',(-1.,0.,0.));
#287=DIRECTION('',(0.,0.,-1.));
#288=DIRECTION('',(-1.,0.,0.));
#289=DIRECTION('',(0.,0.,-1.));
#290=DIRECTION('',(-1.,0.,0.));
#291=DIRECTION('',(0.,0.,-1.));
#292=DIRECTION('',(-1.,0.,0.));
#293=DIRECTION('',(0.,0.,-1.));
#294=DIRECTION('',(-1.,0.,0.));
#295=DIRECTION('',(0.,0.,-1.));
#296=DIRECTION('',(-1.,0.,0.));
#297=DIRECTION('',(0.,0.,-1.));
#298=DIRECTION('',(-1.,0.,0.));
#299=DIRECTION('',(0.,0.,-1.));
#300=DIRECTION('',(-1.,0.,0.));
#301=DIRECTION('',(0.,0.,-1.));
#302=DIRECTION('',(-1.,0.,0.));
#303=DIRECTION('',(0.,0.,1.));
#304=DIRECTION('',(1.,0.,0.));
#305=DIRECTION('',(0.,0.,-1.));
#306=DIRECTION('',(-1.,0.,0.));
#307=DIRECTION('',(0.,0.,-1.));
#308=DIRECTION('',(-1.,0.,0.));
#309=DIRECTION('',(0.,0.,-1.));
#310=DIRECTION('',(-1.,0.,0.));
#311=DIRECTION('',(0.,0.,-1.));
#312=DIRECTION('',(-1.,0.,0.));
#313=DIRECTION('',(0.,0.,-1.));
#314=DIRECTION('',(-1.,0.,0.));
#315=DIRECTION('',(0.,0.,-1.));
#316=DIRECTION('',(-1.,0.,0.));
#317=DIRECTION('',(0.,0.,-1.));
#318=DIRECTION('',(-1.,0.,0.));
#319=DIRECTION('',(0.,0.,-1.));
#320=DIRECTION('',(-1.,0.,0.));
#321=DIRECTION('',(0.,0.,-1.));
#322=DIRECTION('',(-1.,0.,0.));
#323=DIRECTION('',(0.,0.,-1.));
#324=DIRECTION('',(-1.,0.,0.));
#325=DIRECTION('',(0.,0.,-1.));
#326=DIRECTION('',(-1.,0.,0.));
#327=DIRECTION('',(0.,0.,-1.));
#328=DIRECTION('',(-1.,0.,0.));
#329=DIRECTION('',(0.,0.,-1.));
#330=DIRECTION('',(-1.,0.,0.));
#331=DIRECTION('',(0.,0.,1.));
#332=DIRECTION('',(1.,0.,0.));
#333=DIRECTION('',(0.,0.,-1.));
#334=DIRECTION('',(-1.,0.,0.));
#335=DIRECTION('',(0.,0.,-1.));
#336=DIRECTION('',(-1.,0.,0.));
#337=DIRECTION('',(0.,0.,-1.));
#338=DIRECTION('',(-1.,0.,0.));
#339=DIRECTION('',(0.,0.,-1.));
#340=DIRECTION('',(-1.,0.,0.));
#341=CARTESIAN_POINT('',(0.,0.,0.));
#342=CARTESIAN_POINT('',(0.,0.,-1.45000000000001));
#343=CARTESIAN_POINT('',(0.,0.,0.));
#344=CARTESIAN_POINT('',(-28.7,0.,0.));
#345=CARTESIAN_POINT('',(0.,0.,-1.45000000000001));
#346=CARTESIAN_POINT('',(-30.15,0.,-1.45000000000001));
#347=CARTESIAN_POINT('',(0.,28.7,0.));
#348=CARTESIAN_POINT('',(0.,0.,0.));
#349=CARTESIAN_POINT('',(-27.25,0.,0.));
#350=CARTESIAN_POINT('',(0.,0.,-65.));
#351=CARTESIAN_POINT('',(0.,0.,-6.93621901630335));
#352=CARTESIAN_POINT('',(-27.25,0.,-6.93621901630335));
#353=CARTESIAN_POINT('',(0.,0.,-6.93621901630335));
#354=CARTESIAN_POINT('',(0.,0.,-10.8333333333333));
#355=CARTESIAN_POINT('',(-25.,0.,-10.8333333333333));
#356=CARTESIAN_POINT('',(0.,0.,-65.));
#357=CARTESIAN_POINT('',(0.,0.,-54.16666645));
#358=CARTESIAN_POINT('',(-25.,0.,-54.16666645));
#359=CARTESIAN_POINT('',(0.,0.,-54.16666645));
#360=CARTESIAN_POINT('',(0.,0.,-58.06378076703));
#361=CARTESIAN_POINT('',(-27.25,0.,-58.06378076703));
#362=CARTESIAN_POINT('',(0.,0.,-65.));
#363=CARTESIAN_POINT('',(0.,0.,-65.));
#364=CARTESIAN_POINT('',(-27.25,0.,-65.));
#365=CARTESIAN_POINT('',(0.,27.25,-65.));
#366=CARTESIAN_POINT('',(0.,0.,-65.));
#367=CARTESIAN_POINT('',(-28.7,0.,-65.));
#368=CARTESIAN_POINT('',(0.,0.,-65.));
#369=CARTESIAN_POINT('',(0.,0.,-63.55));
#370=CARTESIAN_POINT('',(-30.15,0.,-63.55));
#371=CARTESIAN_POINT('',(0.,0.,-65.));
#372=CARTESIAN_POINT('',(0.,0.,-57.06666645));
#373=CARTESIAN_POINT('',(-30.15,0.,-57.06666645));
#374=CARTESIAN_POINT('',(0.,0.,-57.06666645));
#375=CARTESIAN_POINT('',(0.,0.,-54.16666645));
#376=CARTESIAN_POINT('',(-33.05,0.,-54.16666645));
#377=CARTESIAN_POINT('',(0.,33.05,-54.16666645));
#378=CARTESIAN_POINT('',(0.,0.,-54.16666645));
#379=CARTESIAN_POINT('',(-56.,0.,-54.16666645));
#380=CARTESIAN_POINT('',(0.,0.,-51.16666645));
#381=CARTESIAN_POINT('',(0.,0.,-51.16666645));
#382=CARTESIAN_POINT('',(-59.,0.,-51.16666645));
#383=CARTESIAN_POINT('',(0.,0.,-65.));
#384=CARTESIAN_POINT('',(0.,0.,-13.8333333333333));
#385=CARTESIAN_POINT('',(-59.,0.,-13.8333333333333));
#386=CARTESIAN_POINT('',(0.,0.,-13.8333333333334));
#387=CARTESIAN_POINT('',(0.,0.,-10.8333333333333));
#388=CARTESIAN_POINT('',(-56.,0.,-10.8333333333333));
#389=CARTESIAN_POINT('',(0.,56.,-10.8333333333333));
#390=CARTESIAN_POINT('',(0.,0.,-10.8333333333333));
#391=CARTESIAN_POINT('',(-33.05,0.,-10.8333333333333));
#392=CARTESIAN_POINT('',(0.,0.,-7.93333333333333));
#393=CARTESIAN_POINT('',(0.,0.,-7.93333333333333));
#394=CARTESIAN_POINT('',(-30.15,0.,-7.93333333333333));
#395=CARTESIAN_POINT('',(0.,0.,-65.));
#396=MECHANICAL_DESIGN_GEOMETRIC_PRESENTATION_REPRESENTATION('',(#219),
#397);
#397=(
GEOMETRIC_REPRESENTATION_CONTEXT(3)
GLOBAL_UNCERTAINTY_ASSIGNED_CONTEXT((#398))
GLOBAL_UNIT_ASSIGNED_CONTEXT((#401,#400,#399))
REPRESENTATION_CONTEXT('Rohrdrehgelenk DGNS 50 60.3x2.9',
'TOP_LEVEL_ASSEMBLY_PART')
);
#398=UNCERTAINTY_MEASURE_WITH_UNIT(LENGTH_MEASURE(0.005),#401,
'DISTANCE_ACCURACY_VALUE','Maximum Tolerance applied to model');
#399=(
NAMED_UNIT(*)
SI_UNIT($,.STERADIAN.)
SOLID_ANGLE_UNIT()
);
#400=(
NAMED_UNIT(*)
PLANE_ANGLE_UNIT()
SI_UNIT($,.RADIAN.)
);
#401=(
LENGTH_UNIT()
NAMED_UNIT(*)
SI_UNIT(.MILLI.,.METRE.)
);
#402=PRODUCT_DEFINITION_SHAPE('','',#403);
#403=PRODUCT_DEFINITION('','',#405,#404);
#404=DESIGN_CONTEXT('',#411,'design');
#405=PRODUCT_DEFINITION_FORMATION_WITH_SPECIFIED_SOURCE('','',#407,
 .NOT_KNOWN.);
#406=PRODUCT_RELATED_PRODUCT_CATEGORY('','',(#407));
#407=PRODUCT('Rohrdrehgelenk DGNS 50 60.3x2.9',
'Rohrdrehgelenk DGNS 50 60.3x2.9','Rohrdrehgelenk DGNS 50 60.3x2.9',(#409));
#408=PRODUCT_CATEGORY('','');
#409=MECHANICAL_CONTEXT('',#411,'mechanical');
#410=APPLICATION_PROTOCOL_DEFINITION('international standard',
'config_control_design',2010,#411);
#411=APPLICATION_CONTEXT(
'configuration controlled 3D designs of mechanical parts and assemblie
s');
ENDSEC;
END-ISO-10303-21;
