ISO-10303-21;
HEADER;
/* Generated by software containing ST-Developer
 * from STEP Tools, Inc. (www.steptools.com) 
 */
/* OPTION: using custom renumber hook */

FILE_DESCRIPTION(
/* description */ ('STEP AP203'),
/* implementation_level */ '2;1');

FILE_NAME(
/* name */ 'Swivel Joint DGNS 80 88.9x3.2',
/* time_stamp */ '2024-11-08T11:08:37+01:00',
/* author */ ('License CC BY-ND 4.0'),
/* organization */ ('CADENAS'),
/* preprocessor_version */ 'ST-DEVELOPER v19.3',
/* originating_system */ 'PARTsolutions',
/* authorisation */ '  ');

FILE_SCHEMA (('CONFIG_CONTROL_DESIGN'));
ENDSEC;

DATA;
#10=PROPERTY_DEFINITION_REPRESENTATION(#14,#12);
#11=PROPERTY_DEFINITION_REPRESENTATION(#15,#13);
#12=REPRESENTATION('',(#16),#317);
#13=REPRESENTATION('',(#17),#317);
#14=PROPERTY_DEFINITION('pmi validation property','',#322);
#15=PROPERTY_DEFINITION('pmi validation property','',#322);
#16=VALUE_REPRESENTATION_ITEM('number of annotations',COUNT_MEASURE(0.));
#17=VALUE_REPRESENTATION_ITEM('number of views',COUNT_MEASURE(0.));
#18=SHAPE_REPRESENTATION_RELATIONSHIP('','',#185,#19);
#19=ADVANCED_BREP_SHAPE_REPRESENTATION('',(#183),#317);
#20=TOROIDAL_SURFACE('',#200,47.65,3.19999999999997);
#21=TOROIDAL_SURFACE('',#204,73.,2.99999999999999);
#22=TOROIDAL_SURFACE('',#208,73.,3.);
#23=TOROIDAL_SURFACE('',#212,47.65,3.2);
#24=CYLINDRICAL_SURFACE('',#192,41.25);
#25=CYLINDRICAL_SURFACE('',#198,44.45);
#26=CYLINDRICAL_SURFACE('',#206,76.);
#27=CYLINDRICAL_SURFACE('',#214,44.45);
#28=PLANE('',#190);
#29=PLANE('',#194);
#30=PLANE('',#202);
#31=PLANE('',#210);
#32=ORIENTED_EDGE('',*,*,#60,.T.);
#33=ORIENTED_EDGE('',*,*,#61,.F.);
#34=ORIENTED_EDGE('',*,*,#62,.T.);
#35=ORIENTED_EDGE('',*,*,#60,.F.);
#36=ORIENTED_EDGE('',*,*,#63,.T.);
#37=ORIENTED_EDGE('',*,*,#62,.F.);
#38=ORIENTED_EDGE('',*,*,#64,.T.);
#39=ORIENTED_EDGE('',*,*,#63,.F.);
#40=ORIENTED_EDGE('',*,*,#65,.T.);
#41=ORIENTED_EDGE('',*,*,#64,.F.);
#42=ORIENTED_EDGE('',*,*,#66,.T.);
#43=ORIENTED_EDGE('',*,*,#65,.F.);
#44=ORIENTED_EDGE('',*,*,#66,.F.);
#45=ORIENTED_EDGE('',*,*,#67,.T.);
#46=ORIENTED_EDGE('',*,*,#68,.T.);
#47=ORIENTED_EDGE('',*,*,#67,.F.);
#48=ORIENTED_EDGE('',*,*,#69,.T.);
#49=ORIENTED_EDGE('',*,*,#68,.F.);
#50=ORIENTED_EDGE('',*,*,#70,.T.);
#51=ORIENTED_EDGE('',*,*,#69,.F.);
#52=ORIENTED_EDGE('',*,*,#71,.T.);
#53=ORIENTED_EDGE('',*,*,#70,.F.);
#54=ORIENTED_EDGE('',*,*,#72,.T.);
#55=ORIENTED_EDGE('',*,*,#71,.F.);
#56=ORIENTED_EDGE('',*,*,#72,.F.);
#57=ORIENTED_EDGE('',*,*,#73,.T.);
#58=ORIENTED_EDGE('',*,*,#61,.T.);
#59=ORIENTED_EDGE('',*,*,#73,.F.);
#60=EDGE_CURVE('',#74,#74,#88,.T.);
#61=EDGE_CURVE('',#75,#75,#89,.T.);
#62=EDGE_CURVE('',#76,#76,#90,.T.);
#63=EDGE_CURVE('',#77,#77,#91,.T.);
#64=EDGE_CURVE('',#78,#78,#92,.T.);
#65=EDGE_CURVE('',#79,#79,#93,.T.);
#66=EDGE_CURVE('',#80,#80,#94,.T.);
#67=EDGE_CURVE('',#81,#81,#95,.T.);
#68=EDGE_CURVE('',#82,#82,#96,.T.);
#69=EDGE_CURVE('',#83,#83,#97,.T.);
#70=EDGE_CURVE('',#84,#84,#98,.T.);
#71=EDGE_CURVE('',#85,#85,#99,.T.);
#72=EDGE_CURVE('',#86,#86,#100,.T.);
#73=EDGE_CURVE('',#87,#87,#101,.T.);
#74=VERTEX_POINT('',#276);
#75=VERTEX_POINT('',#278);
#76=VERTEX_POINT('',#281);
#77=VERTEX_POINT('',#284);
#78=VERTEX_POINT('',#287);
#79=VERTEX_POINT('',#290);
#80=VERTEX_POINT('',#293);
#81=VERTEX_POINT('',#296);
#82=VERTEX_POINT('',#299);
#83=VERTEX_POINT('',#302);
#84=VERTEX_POINT('',#305);
#85=VERTEX_POINT('',#308);
#86=VERTEX_POINT('',#311);
#87=VERTEX_POINT('',#314);
#88=CIRCLE('',#188,42.85);
#89=CIRCLE('',#189,44.45);
#90=CIRCLE('',#191,41.25);
#91=CIRCLE('',#193,41.25);
#92=CIRCLE('',#195,42.85);
#93=CIRCLE('',#197,44.45);
#94=CIRCLE('',#199,44.45);
#95=CIRCLE('',#201,47.65);
#96=CIRCLE('',#203,73.);
#97=CIRCLE('',#205,76.);
#98=CIRCLE('',#207,76.);
#99=CIRCLE('',#209,73.);
#100=CIRCLE('',#211,47.65);
#101=CIRCLE('',#213,44.45);
#102=EDGE_LOOP('',(#32));
#103=EDGE_LOOP('',(#33));
#104=EDGE_LOOP('',(#34));
#105=EDGE_LOOP('',(#35));
#106=EDGE_LOOP('',(#36));
#107=EDGE_LOOP('',(#37));
#108=EDGE_LOOP('',(#38));
#109=EDGE_LOOP('',(#39));
#110=EDGE_LOOP('',(#40));
#111=EDGE_LOOP('',(#41));
#112=EDGE_LOOP('',(#42));
#113=EDGE_LOOP('',(#43));
#114=EDGE_LOOP('',(#44));
#115=EDGE_LOOP('',(#45));
#116=EDGE_LOOP('',(#46));
#117=EDGE_LOOP('',(#47));
#118=EDGE_LOOP('',(#48));
#119=EDGE_LOOP('',(#49));
#120=EDGE_LOOP('',(#50));
#121=EDGE_LOOP('',(#51));
#122=EDGE_LOOP('',(#52));
#123=EDGE_LOOP('',(#53));
#124=EDGE_LOOP('',(#54));
#125=EDGE_LOOP('',(#55));
#126=EDGE_LOOP('',(#56));
#127=EDGE_LOOP('',(#57));
#128=EDGE_LOOP('',(#58));
#129=EDGE_LOOP('',(#59));
#130=FACE_BOUND('',#102,.T.);
#131=FACE_BOUND('',#103,.T.);
#132=FACE_BOUND('',#104,.T.);
#133=FACE_BOUND('',#105,.T.);
#134=FACE_BOUND('',#106,.T.);
#135=FACE_BOUND('',#107,.T.);
#136=FACE_BOUND('',#108,.T.);
#137=FACE_BOUND('',#109,.T.);
#138=FACE_BOUND('',#110,.T.);
#139=FACE_BOUND('',#111,.T.);
#140=FACE_BOUND('',#112,.T.);
#141=FACE_BOUND('',#113,.T.);
#142=FACE_BOUND('',#114,.T.);
#143=FACE_BOUND('',#115,.T.);
#144=FACE_BOUND('',#116,.T.);
#145=FACE_BOUND('',#117,.T.);
#146=FACE_BOUND('',#118,.T.);
#147=FACE_BOUND('',#119,.T.);
#148=FACE_BOUND('',#120,.T.);
#149=FACE_BOUND('',#121,.T.);
#150=FACE_BOUND('',#122,.T.);
#151=FACE_BOUND('',#123,.T.);
#152=FACE_BOUND('',#124,.T.);
#153=FACE_BOUND('',#125,.T.);
#154=FACE_BOUND('',#126,.T.);
#155=FACE_BOUND('',#127,.T.);
#156=FACE_BOUND('',#128,.T.);
#157=FACE_BOUND('',#129,.T.);
#158=CONICAL_SURFACE('',#187,44.45,0.785398163397448);
#159=CONICAL_SURFACE('',#196,42.85,0.785398163397453);
#160=ADVANCED_FACE('',(#130,#131),#158,.T.);
#161=ADVANCED_FACE('',(#132,#133),#28,.T.);
#162=ADVANCED_FACE('',(#134,#135),#24,.F.);
#163=ADVANCED_FACE('',(#136,#137),#29,.T.);
#164=ADVANCED_FACE('',(#138,#139),#159,.T.);
#165=ADVANCED_FACE('',(#140,#141),#25,.T.);
#166=ADVANCED_FACE('',(#142,#143),#20,.F.);
#167=ADVANCED_FACE('',(#144,#145),#30,.T.);
#168=ADVANCED_FACE('',(#146,#147),#21,.T.);
#169=ADVANCED_FACE('',(#148,#149),#26,.T.);
#170=ADVANCED_FACE('',(#150,#151),#22,.T.);
#171=ADVANCED_FACE('',(#152,#153),#31,.T.);
#172=ADVANCED_FACE('',(#154,#155),#23,.F.);
#173=ADVANCED_FACE('',(#156,#157),#27,.T.);
#174=CLOSED_SHELL('',(#160,#161,#162,#163,#164,#165,#166,#167,#168,#169,
#170,#171,#172,#173));
#175=STYLED_ITEM('',(#176),#183);
#176=PRESENTATION_STYLE_ASSIGNMENT((#177));
#177=SURFACE_STYLE_USAGE(.BOTH.,#178);
#178=SURFACE_SIDE_STYLE('',(#179));
#179=SURFACE_STYLE_FILL_AREA(#180);
#180=FILL_AREA_STYLE('',(#181));
#181=FILL_AREA_STYLE_COLOUR('',#182);
#182=COLOUR_RGB('',0.689999997615814,0.689999997615814,0.689999997615814);
#183=MANIFOLD_SOLID_BREP('Rohrdrehgelenk DGNS 80 88.9x3.2',#174);
#184=SHAPE_DEFINITION_REPRESENTATION(#322,#185);
#185=SHAPE_REPRESENTATION('Rohrdrehgelenk DGNS 80 88.9x3.2',(#186),#317);
#186=AXIS2_PLACEMENT_3D('',#273,#215,#216);
#187=AXIS2_PLACEMENT_3D('',#274,#217,#218);
#188=AXIS2_PLACEMENT_3D('',#275,#219,#220);
#189=AXIS2_PLACEMENT_3D('',#277,#221,#222);
#190=AXIS2_PLACEMENT_3D('',#279,#223,#224);
#191=AXIS2_PLACEMENT_3D('',#280,#225,#226);
#192=AXIS2_PLACEMENT_3D('',#282,#227,#228);
#193=AXIS2_PLACEMENT_3D('',#283,#229,#230);
#194=AXIS2_PLACEMENT_3D('',#285,#231,#232);
#195=AXIS2_PLACEMENT_3D('',#286,#233,#234);
#196=AXIS2_PLACEMENT_3D('',#288,#235,#236);
#197=AXIS2_PLACEMENT_3D('',#289,#237,#238);
#198=AXIS2_PLACEMENT_3D('',#291,#239,#240);
#199=AXIS2_PLACEMENT_3D('',#292,#241,#242);
#200=AXIS2_PLACEMENT_3D('',#294,#243,#244);
#201=AXIS2_PLACEMENT_3D('',#295,#245,#246);
#202=AXIS2_PLACEMENT_3D('',#297,#247,#248);
#203=AXIS2_PLACEMENT_3D('',#298,#249,#250);
#204=AXIS2_PLACEMENT_3D('',#300,#251,#252);
#205=AXIS2_PLACEMENT_3D('',#301,#253,#254);
#206=AXIS2_PLACEMENT_3D('',#303,#255,#256);
#207=AXIS2_PLACEMENT_3D('',#304,#257,#258);
#208=AXIS2_PLACEMENT_3D('',#306,#259,#260);
#209=AXIS2_PLACEMENT_3D('',#307,#261,#262);
#210=AXIS2_PLACEMENT_3D('',#309,#263,#264);
#211=AXIS2_PLACEMENT_3D('',#310,#265,#266);
#212=AXIS2_PLACEMENT_3D('',#312,#267,#268);
#213=AXIS2_PLACEMENT_3D('',#313,#269,#270);
#214=AXIS2_PLACEMENT_3D('',#315,#271,#272);
#215=DIRECTION('',(0.,0.,1.));
#216=DIRECTION('',(1.,0.,0.));
#217=DIRECTION('',(0.,0.,-1.));
#218=DIRECTION('',(-1.,0.,0.));
#219=DIRECTION('',(0.,0.,-1.));
#220=DIRECTION('',(-1.,0.,0.));
#221=DIRECTION('',(0.,0.,-1.));
#222=DIRECTION('',(-1.,0.,0.));
#223=DIRECTION('',(0.,0.,1.));
#224=DIRECTION('',(1.,0.,0.));
#225=DIRECTION('',(0.,0.,-1.));
#226=DIRECTION('',(-1.,0.,0.));
#227=DIRECTION('',(0.,0.,-1.));
#228=DIRECTION('',(-1.,0.,0.));
#229=DIRECTION('',(0.,0.,-1.));
#230=DIRECTION('',(-1.,0.,0.));
#231=DIRECTION('',(0.,0.,-1.));
#232=DIRECTION('',(-1.,0.,0.));
#233=DIRECTION('',(0.,0.,-1.));
#234=DIRECTION('',(-1.,0.,0.));
#235=DIRECTION('',(0.,0.,1.));
#236=DIRECTION('',(1.,0.,0.));
#237=DIRECTION('',(0.,0.,-1.));
#238=DIRECTION('',(-1.,0.,0.));
#239=DIRECTION('',(0.,0.,-1.));
#240=DIRECTION('',(-1.,0.,0.));
#241=DIRECTION('',(0.,0.,-1.));
#242=DIRECTION('',(-1.,0.,0.));
#243=DIRECTION('',(0.,0.,-1.));
#244=DIRECTION('',(-1.,0.,0.));
#245=DIRECTION('',(0.,0.,-1.));
#246=DIRECTION('',(-1.,0.,0.));
#247=DIRECTION('',(0.,0.,-1.));
#248=DIRECTION('',(-1.,0.,0.));
#249=DIRECTION('',(0.,0.,-1.));
#250=DIRECTION('',(-1.,0.,0.));
#251=DIRECTION('',(0.,0.,-1.));
#252=DIRECTION('',(-1.,0.,0.));
#253=DIRECTION('',(0.,0.,-1.));
#254=DIRECTION('',(-1.,0.,0.));
#255=DIRECTION('',(0.,0.,-1.));
#256=DIRECTION('',(-1.,0.,0.));
#257=DIRECTION('',(0.,0.,-1.));
#258=DIRECTION('',(-1.,0.,0.));
#259=DIRECTION('',(0.,0.,-1.));
#260=DIRECTION('',(-1.,0.,0.));
#261=DIRECTION('',(0.,0.,-1.));
#262=DIRECTION('',(-1.,0.,0.));
#263=DIRECTION('',(0.,0.,1.));
#264=DIRECTION('',(1.,0.,0.));
#265=DIRECTION('',(0.,0.,-1.));
#266=DIRECTION('',(-1.,0.,0.));
#267=DIRECTION('',(0.,0.,-1.));
#268=DIRECTION('',(-1.,0.,0.));
#269=DIRECTION('',(0.,0.,-1.));
#270=DIRECTION('',(-1.,0.,0.));
#271=DIRECTION('',(0.,0.,-1.));
#272=DIRECTION('',(-1.,0.,0.));
#273=CARTESIAN_POINT('',(0.,0.,0.));
#274=CARTESIAN_POINT('',(0.,0.,-1.6));
#275=CARTESIAN_POINT('',(0.,0.,0.));
#276=CARTESIAN_POINT('',(-42.85,0.,0.));
#277=CARTESIAN_POINT('',(0.,0.,-1.6));
#278=CARTESIAN_POINT('',(-44.45,0.,-1.6));
#279=CARTESIAN_POINT('',(0.,42.85,0.));
#280=CARTESIAN_POINT('',(0.,0.,0.));
#281=CARTESIAN_POINT('',(-41.25,0.,0.));
#282=CARTESIAN_POINT('',(0.,0.,-75.));
#283=CARTESIAN_POINT('',(0.,0.,-75.));
#284=CARTESIAN_POINT('',(-41.25,0.,-75.));
#285=CARTESIAN_POINT('',(0.,41.25,-75.));
#286=CARTESIAN_POINT('',(0.,0.,-75.));
#287=CARTESIAN_POINT('',(-42.85,0.,-75.));
#288=CARTESIAN_POINT('',(0.,0.,-75.));
#289=CARTESIAN_POINT('',(0.,0.,-73.4));
#290=CARTESIAN_POINT('',(-44.45,0.,-73.4));
#291=CARTESIAN_POINT('',(0.,0.,-75.));
#292=CARTESIAN_POINT('',(0.,0.,-65.69999975));
#293=CARTESIAN_POINT('',(-44.45,0.,-65.69999975));
#294=CARTESIAN_POINT('',(0.,0.,-65.69999975));
#295=CARTESIAN_POINT('',(0.,0.,-62.49999975));
#296=CARTESIAN_POINT('',(-47.65,0.,-62.49999975));
#297=CARTESIAN_POINT('',(0.,47.65,-62.49999975));
#298=CARTESIAN_POINT('',(0.,0.,-62.49999975));
#299=CARTESIAN_POINT('',(-73.,0.,-62.49999975));
#300=CARTESIAN_POINT('',(0.,0.,-59.49999975));
#301=CARTESIAN_POINT('',(0.,0.,-59.49999975));
#302=CARTESIAN_POINT('',(-76.,0.,-59.49999975));
#303=CARTESIAN_POINT('',(0.,0.,-75.));
#304=CARTESIAN_POINT('',(0.,0.,-15.5));
#305=CARTESIAN_POINT('',(-76.,0.,-15.5));
#306=CARTESIAN_POINT('',(0.,0.,-15.5));
#307=CARTESIAN_POINT('',(0.,0.,-12.5));
#308=CARTESIAN_POINT('',(-73.,0.,-12.5));
#309=CARTESIAN_POINT('',(0.,73.,-12.5));
#310=CARTESIAN_POINT('',(0.,0.,-12.5));
#311=CARTESIAN_POINT('',(-47.65,0.,-12.5));
#312=CARTESIAN_POINT('',(0.,0.,-9.3));
#313=CARTESIAN_POINT('',(0.,0.,-9.3));
#314=CARTESIAN_POINT('',(-44.45,0.,-9.3));
#315=CARTESIAN_POINT('',(0.,0.,-75.));
#316=MECHANICAL_DESIGN_GEOMETRIC_PRESENTATION_REPRESENTATION('',(#175),
#317);
#317=(
GEOMETRIC_REPRESENTATION_CONTEXT(3)
GLOBAL_UNCERTAINTY_ASSIGNED_CONTEXT((#318))
GLOBAL_UNIT_ASSIGNED_CONTEXT((#321,#320,#319))
REPRESENTATION_CONTEXT('Rohrdrehgelenk DGNS 80 88.9x3.2',
'TOP_LEVEL_ASSEMBLY_PART')
);
#318=UNCERTAINTY_MEASURE_WITH_UNIT(LENGTH_MEASURE(0.005),#321,
'DISTANCE_ACCURACY_VALUE','Maximum Tolerance applied to model');
#319=(
NAMED_UNIT(*)
SI_UNIT($,.STERADIAN.)
SOLID_ANGLE_UNIT()
);
#320=(
NAMED_UNIT(*)
PLANE_ANGLE_UNIT()
SI_UNIT($,.RADIAN.)
);
#321=(
LENGTH_UNIT()
NAMED_UNIT(*)
SI_UNIT(.MILLI.,.METRE.)
);
#322=PRODUCT_DEFINITION_SHAPE('','',#323);
#323=PRODUCT_DEFINITION('','',#325,#324);
#324=DESIGN_CONTEXT('',#331,'design');
#325=PRODUCT_DEFINITION_FORMATION_WITH_SPECIFIED_SOURCE('','',#327,
 .NOT_KNOWN.);
#326=PRODUCT_RELATED_PRODUCT_CATEGORY('','',(#327));
#327=PRODUCT('Rohrdrehgelenk DGNS 80 88.9x3.2',
'Rohrdrehgelenk DGNS 80 88.9x3.2','Rohrdrehgelenk DGNS 80 88.9x3.2',(#329));
#328=PRODUCT_CATEGORY('','');
#329=MECHANICAL_CONTEXT('',#331,'mechanical');
#330=APPLICATION_PROTOCOL_DEFINITION('international standard',
'config_control_design',2010,#331);
#331=APPLICATION_CONTEXT(
'configuration controlled 3D designs of mechanical parts and assemblie
s');
ENDSEC;
END-ISO-10303-21;
