ISO-10303-21;
HEADER;
/* Generated by software containing ST-Developer
 * from STEP Tools, Inc. (www.steptools.com) 
 */
/* OPTION: using custom schema-name function */

FILE_DESCRIPTION(
/* description */ (''),
/* implementation_level */ '2;1');

FILE_NAME(
/* name */ 'DGNT32.stp',
/* time_stamp */ '2025-03-05T12:42:26+01:00',
/* author */ (''),
/* organization */ (''),
/* preprocessor_version */ 'ST-DEVELOPER v16.7',
/* originating_system */ 'SIEMENS PLM Software NX 1863',
/* authorisation */ '');

FILE_SCHEMA (('AP203_CONFIGURATION_CONTROLLED_3D_DESIGN_OF_MECHANICAL_PARTS_AND_ASSEMBLIES_MIM_LF { 1 0 10303 403 2 1 2}'));
ENDSEC;

DATA;
#10=SHAPE_REPRESENTATION_RELATIONSHIP('None',
'relationship between DGNT32_step-None and DGNT32_step-None',#92,#11);
#11=ADVANCED_BREP_SHAPE_REPRESENTATION('DGNT32_step-None',(#102),#669);
#12=CC_DESIGN_APPROVAL(#24,(#82));
#13=CC_DESIGN_APPROVAL(#25,(#84));
#14=CC_DESIGN_APPROVAL(#26,(#31));
#15=APPROVAL_PERSON_ORGANIZATION(#69,#24,#18);
#16=APPROVAL_PERSON_ORGANIZATION(#70,#25,#19);
#17=APPROVAL_PERSON_ORGANIZATION(#71,#26,#20);
#18=APPROVAL_ROLE('approver');
#19=APPROVAL_ROLE('approver');
#20=APPROVAL_ROLE('approver');
#21=APPROVAL_DATE_TIME(#39,#24);
#22=APPROVAL_DATE_TIME(#40,#25);
#23=APPROVAL_DATE_TIME(#41,#26);
#24=APPROVAL(#27,' ');
#25=APPROVAL(#28,' ');
#26=APPROVAL(#29,' ');
#27=APPROVAL_STATUS('not_yet_approved');
#28=APPROVAL_STATUS('not_yet_approved');
#29=APPROVAL_STATUS('not_yet_approved');
#30=CC_DESIGN_SECURITY_CLASSIFICATION(#31,(#84));
#31=SECURITY_CLASSIFICATION(' ',' ',#32);
#32=SECURITY_CLASSIFICATION_LEVEL('confidential');
#33=CC_DESIGN_DATE_AND_TIME_ASSIGNMENT(#37,#35,(#82));
#34=CC_DESIGN_DATE_AND_TIME_ASSIGNMENT(#38,#36,(#31));
#35=DATE_TIME_ROLE('creation_date');
#36=DATE_TIME_ROLE('classification_date');
#37=DATE_AND_TIME(#52,#42);
#38=DATE_AND_TIME(#53,#43);
#39=DATE_AND_TIME(#54,#44);
#40=DATE_AND_TIME(#55,#45);
#41=DATE_AND_TIME(#56,#46);
#42=LOCAL_TIME(0,0,0.,#47);
#43=LOCAL_TIME(0,0,0.,#48);
#44=LOCAL_TIME(0,0,0.,#49);
#45=LOCAL_TIME(0,0,0.,#50);
#46=LOCAL_TIME(0,0,0.,#51);
#47=COORDINATED_UNIVERSAL_TIME_OFFSET(0,0,.BEHIND.);
#48=COORDINATED_UNIVERSAL_TIME_OFFSET(0,0,.BEHIND.);
#49=COORDINATED_UNIVERSAL_TIME_OFFSET(0,0,.BEHIND.);
#50=COORDINATED_UNIVERSAL_TIME_OFFSET(0,0,.BEHIND.);
#51=COORDINATED_UNIVERSAL_TIME_OFFSET(0,0,.BEHIND.);
#52=CALENDAR_DATE(0,1,1);
#53=CALENDAR_DATE(0,1,1);
#54=CALENDAR_DATE(0,1,1);
#55=CALENDAR_DATE(0,1,1);
#56=CALENDAR_DATE(0,1,1);
#57=CC_DESIGN_PERSON_AND_ORGANIZATION_ASSIGNMENT(#65,#61,(#82,#84));
#58=CC_DESIGN_PERSON_AND_ORGANIZATION_ASSIGNMENT(#66,#62,(#86));
#59=CC_DESIGN_PERSON_AND_ORGANIZATION_ASSIGNMENT(#67,#63,(#84));
#60=CC_DESIGN_PERSON_AND_ORGANIZATION_ASSIGNMENT(#68,#64,(#31));
#61=PERSON_AND_ORGANIZATION_ROLE('creator');
#62=PERSON_AND_ORGANIZATION_ROLE('design_owner');
#63=PERSON_AND_ORGANIZATION_ROLE('design_supplier');
#64=PERSON_AND_ORGANIZATION_ROLE('classification_officer');
#65=PERSON_AND_ORGANIZATION(#79,#72);
#66=PERSON_AND_ORGANIZATION(#79,#73);
#67=PERSON_AND_ORGANIZATION(#79,#74);
#68=PERSON_AND_ORGANIZATION(#79,#75);
#69=PERSON_AND_ORGANIZATION(#79,#76);
#70=PERSON_AND_ORGANIZATION(#79,#77);
#71=PERSON_AND_ORGANIZATION(#79,#78);
#72=ORGANIZATION(' ',' ',' ');
#73=ORGANIZATION(' ',' ',' ');
#74=ORGANIZATION(' ',' ',' ');
#75=ORGANIZATION(' ',' ',' ');
#76=ORGANIZATION(' ',' ',' ');
#77=ORGANIZATION(' ',' ',' ');
#78=ORGANIZATION(' ',' ',' ');
#79=PERSON(' ',' ',' ',(' '),$,$);
#80=SHAPE_DEFINITION_REPRESENTATION(#81,#92);
#81=PRODUCT_DEFINITION_SHAPE('','',#82);
#82=PRODUCT_DEFINITION(' ','',#84,#83);
#83=DESIGN_CONTEXT('',#91,'design');
#84=PRODUCT_DEFINITION_FORMATION_WITH_SPECIFIED_SOURCE(' ',' ',#86,
 .NOT_KNOWN.);
#85=PRODUCT_RELATED_PRODUCT_CATEGORY('detail','',(#86));
#86=PRODUCT('DGNT32_step','DGNT32_step',' ',(#89));
#87=PRODUCT_CATEGORY('part',' ');
#88=PRODUCT_CATEGORY(' ','');
#89=MECHANICAL_CONTEXT(' ',#91,'mechanical');
#90=APPLICATION_PROTOCOL_DEFINITION('international standard',
'config_control_design',2010,#91);
#91=APPLICATION_CONTEXT(
'configuration controlled 3D designs of mechanical parts and assemblie
s');
#92=SHAPE_REPRESENTATION('DGNT32_step-None',(#412),#669);
#93=PRESENTATION_LAYER_ASSIGNMENT('1','Layer 1',(#102));
#94=STYLED_ITEM('',(#95),#102);
#95=PRESENTATION_STYLE_ASSIGNMENT((#96));
#96=SURFACE_STYLE_USAGE(.BOTH.,#97);
#97=SURFACE_SIDE_STYLE('',(#98));
#98=SURFACE_STYLE_FILL_AREA(#99);
#99=FILL_AREA_STYLE('',(#100));
#100=FILL_AREA_STYLE_COLOUR('',#101);
#101=COLOUR_RGB('Medium Steel',0.596063172350652,0.666666666666667,0.686259250782025);
#102=MANIFOLD_SOLID_BREP('',#103);
#103=CLOSED_SHELL('',(#124,#125,#126,#127,#128,#129,#130,#131,#132,#133,
#134,#135,#136,#137,#138,#139,#140,#141,#142,#143,#144,#145,#146,#147,#148,
#149,#150,#151));
#104=TOROIDAL_SURFACE('',#465,24.7,0.8);
#105=TOROIDAL_SURFACE('',#466,28.3,0.8);
#106=TOROIDAL_SURFACE('',#467,24.7,0.8);
#107=TOROIDAL_SURFACE('',#468,28.3,0.8);
#108=CONICAL_SURFACE('',#448,19.476,59.);
#109=CONICAL_SURFACE('',#451,21.155,45.0000000000001);
#110=CONICAL_SURFACE('',#454,19.476,59.);
#111=CONICAL_SURFACE('',#457,21.155,45.0000000000001);
#112=CONICAL_SURFACE('',#459,44.,45.);
#113=CONICAL_SURFACE('',#460,43.5,45.);
#114=CONICAL_SURFACE('',#461,25.7,44.999999999999);
#115=CONICAL_SURFACE('',#462,27.5,44.999999999999);
#116=CONICAL_SURFACE('',#463,25.7,44.9999999999998);
#117=CONICAL_SURFACE('',#464,27.3,44.9999999999998);
#118=PLANE('',#418);
#119=PLANE('',#424);
#120=PLANE('',#427);
#121=PLANE('',#433);
#122=PLANE('',#436);
#123=PLANE('',#442);
#124=ADVANCED_FACE('',(#160,#161),#152,.T.);
#125=ADVANCED_FACE('',(#162,#163),#118,.T.);
#126=ADVANCED_FACE('',(#164,#165),#153,.T.);
#127=ADVANCED_FACE('',(#166,#167),#119,.T.);
#128=ADVANCED_FACE('',(#168,#169),#120,.T.);
#129=ADVANCED_FACE('',(#170,#171),#154,.T.);
#130=ADVANCED_FACE('',(#172,#173),#121,.T.);
#131=ADVANCED_FACE('',(#174,#175),#122,.F.);
#132=ADVANCED_FACE('',(#176,#177),#155,.F.);
#133=ADVANCED_FACE('',(#178,#179),#123,.F.);
#134=ADVANCED_FACE('',(#180,#181),#156,.F.);
#135=ADVANCED_FACE('',(#182,#183),#108,.F.);
#136=ADVANCED_FACE('',(#184,#185),#157,.F.);
#137=ADVANCED_FACE('',(#186,#187),#109,.F.);
#138=ADVANCED_FACE('',(#188,#189),#110,.F.);
#139=ADVANCED_FACE('',(#190,#191),#158,.F.);
#140=ADVANCED_FACE('',(#192,#193),#111,.F.);
#141=ADVANCED_FACE('',(#194,#195),#159,.F.);
#142=ADVANCED_FACE('',(#196,#197),#112,.T.);
#143=ADVANCED_FACE('',(#198,#199),#113,.T.);
#144=ADVANCED_FACE('',(#200,#201),#114,.F.);
#145=ADVANCED_FACE('',(#202,#203),#115,.T.);
#146=ADVANCED_FACE('',(#204,#205),#116,.F.);
#147=ADVANCED_FACE('',(#206,#207),#117,.T.);
#148=ADVANCED_FACE('',(#208,#209),#104,.F.);
#149=ADVANCED_FACE('',(#210,#211),#105,.F.);
#150=ADVANCED_FACE('',(#212,#213),#106,.F.);
#151=ADVANCED_FACE('',(#214,#215),#107,.F.);
#152=CYLINDRICAL_SURFACE('',#415,44.);
#153=CYLINDRICAL_SURFACE('',#421,27.5);
#154=CYLINDRICAL_SURFACE('',#430,27.5);
#155=CYLINDRICAL_SURFACE('',#439,25.5);
#156=CYLINDRICAL_SURFACE('',#445,25.5);
#157=CYLINDRICAL_SURFACE('',#450,19.476);
#158=CYLINDRICAL_SURFACE('',#456,19.476);
#159=CYLINDRICAL_SURFACE('',#458,18.6);
#160=FACE_BOUND('',#216,.T.);
#161=FACE_BOUND('',#217,.T.);
#162=FACE_BOUND('',#218,.T.);
#163=FACE_BOUND('',#219,.T.);
#164=FACE_BOUND('',#220,.T.);
#165=FACE_BOUND('',#221,.T.);
#166=FACE_BOUND('',#222,.T.);
#167=FACE_BOUND('',#223,.T.);
#168=FACE_BOUND('',#224,.T.);
#169=FACE_BOUND('',#225,.T.);
#170=FACE_BOUND('',#226,.T.);
#171=FACE_BOUND('',#227,.T.);
#172=FACE_BOUND('',#228,.T.);
#173=FACE_BOUND('',#229,.T.);
#174=FACE_BOUND('',#230,.T.);
#175=FACE_BOUND('',#231,.T.);
#176=FACE_BOUND('',#232,.T.);
#177=FACE_BOUND('',#233,.T.);
#178=FACE_BOUND('',#234,.T.);
#179=FACE_BOUND('',#235,.T.);
#180=FACE_BOUND('',#236,.T.);
#181=FACE_BOUND('',#237,.T.);
#182=FACE_BOUND('',#238,.T.);
#183=FACE_BOUND('',#239,.T.);
#184=FACE_BOUND('',#240,.T.);
#185=FACE_BOUND('',#241,.T.);
#186=FACE_BOUND('',#242,.T.);
#187=FACE_BOUND('',#243,.T.);
#188=FACE_BOUND('',#244,.T.);
#189=FACE_BOUND('',#245,.T.);
#190=FACE_BOUND('',#246,.T.);
#191=FACE_BOUND('',#247,.T.);
#192=FACE_BOUND('',#248,.T.);
#193=FACE_BOUND('',#249,.T.);
#194=FACE_BOUND('',#250,.T.);
#195=FACE_BOUND('',#251,.T.);
#196=FACE_BOUND('',#252,.T.);
#197=FACE_BOUND('',#253,.T.);
#198=FACE_BOUND('',#254,.T.);
#199=FACE_BOUND('',#255,.T.);
#200=FACE_BOUND('',#256,.T.);
#201=FACE_BOUND('',#257,.T.);
#202=FACE_BOUND('',#258,.T.);
#203=FACE_BOUND('',#259,.T.);
#204=FACE_BOUND('',#260,.T.);
#205=FACE_BOUND('',#261,.T.);
#206=FACE_BOUND('',#262,.T.);
#207=FACE_BOUND('',#263,.T.);
#208=FACE_BOUND('',#264,.T.);
#209=FACE_BOUND('',#265,.T.);
#210=FACE_BOUND('',#266,.T.);
#211=FACE_BOUND('',#267,.T.);
#212=FACE_BOUND('',#268,.T.);
#213=FACE_BOUND('',#269,.T.);
#214=FACE_BOUND('',#270,.T.);
#215=FACE_BOUND('',#271,.T.);
#216=EDGE_LOOP('',(#272));
#217=EDGE_LOOP('',(#273));
#218=EDGE_LOOP('',(#274));
#219=EDGE_LOOP('',(#275));
#220=EDGE_LOOP('',(#276));
#221=EDGE_LOOP('',(#277));
#222=EDGE_LOOP('',(#278));
#223=EDGE_LOOP('',(#279));
#224=EDGE_LOOP('',(#280));
#225=EDGE_LOOP('',(#281));
#226=EDGE_LOOP('',(#282));
#227=EDGE_LOOP('',(#283));
#228=EDGE_LOOP('',(#284));
#229=EDGE_LOOP('',(#285));
#230=EDGE_LOOP('',(#286));
#231=EDGE_LOOP('',(#287));
#232=EDGE_LOOP('',(#288));
#233=EDGE_LOOP('',(#289));
#234=EDGE_LOOP('',(#290));
#235=EDGE_LOOP('',(#291));
#236=EDGE_LOOP('',(#292));
#237=EDGE_LOOP('',(#293));
#238=EDGE_LOOP('',(#294));
#239=EDGE_LOOP('',(#295));
#240=EDGE_LOOP('',(#296));
#241=EDGE_LOOP('',(#297));
#242=EDGE_LOOP('',(#298));
#243=EDGE_LOOP('',(#299));
#244=EDGE_LOOP('',(#300));
#245=EDGE_LOOP('',(#301));
#246=EDGE_LOOP('',(#302));
#247=EDGE_LOOP('',(#303));
#248=EDGE_LOOP('',(#304));
#249=EDGE_LOOP('',(#305));
#250=EDGE_LOOP('',(#306));
#251=EDGE_LOOP('',(#307));
#252=EDGE_LOOP('',(#308));
#253=EDGE_LOOP('',(#309));
#254=EDGE_LOOP('',(#310));
#255=EDGE_LOOP('',(#311));
#256=EDGE_LOOP('',(#312));
#257=EDGE_LOOP('',(#313));
#258=EDGE_LOOP('',(#314));
#259=EDGE_LOOP('',(#315));
#260=EDGE_LOOP('',(#316));
#261=EDGE_LOOP('',(#317));
#262=EDGE_LOOP('',(#318));
#263=EDGE_LOOP('',(#319));
#264=EDGE_LOOP('',(#320));
#265=EDGE_LOOP('',(#321));
#266=EDGE_LOOP('',(#322));
#267=EDGE_LOOP('',(#323));
#268=EDGE_LOOP('',(#324));
#269=EDGE_LOOP('',(#325));
#270=EDGE_LOOP('',(#326));
#271=EDGE_LOOP('',(#327));
#272=ORIENTED_EDGE('',*,*,#356,.T.);
#273=ORIENTED_EDGE('',*,*,#357,.T.);
#274=ORIENTED_EDGE('',*,*,#358,.T.);
#275=ORIENTED_EDGE('',*,*,#359,.T.);
#276=ORIENTED_EDGE('',*,*,#360,.T.);
#277=ORIENTED_EDGE('',*,*,#361,.T.);
#278=ORIENTED_EDGE('',*,*,#362,.T.);
#279=ORIENTED_EDGE('',*,*,#363,.T.);
#280=ORIENTED_EDGE('',*,*,#364,.T.);
#281=ORIENTED_EDGE('',*,*,#365,.T.);
#282=ORIENTED_EDGE('',*,*,#366,.T.);
#283=ORIENTED_EDGE('',*,*,#367,.T.);
#284=ORIENTED_EDGE('',*,*,#368,.T.);
#285=ORIENTED_EDGE('',*,*,#369,.T.);
#286=ORIENTED_EDGE('',*,*,#370,.T.);
#287=ORIENTED_EDGE('',*,*,#371,.T.);
#288=ORIENTED_EDGE('',*,*,#372,.T.);
#289=ORIENTED_EDGE('',*,*,#373,.T.);
#290=ORIENTED_EDGE('',*,*,#374,.T.);
#291=ORIENTED_EDGE('',*,*,#375,.T.);
#292=ORIENTED_EDGE('',*,*,#376,.T.);
#293=ORIENTED_EDGE('',*,*,#377,.T.);
#294=ORIENTED_EDGE('',*,*,#378,.T.);
#295=ORIENTED_EDGE('',*,*,#379,.T.);
#296=ORIENTED_EDGE('',*,*,#380,.T.);
#297=ORIENTED_EDGE('',*,*,#379,.F.);
#298=ORIENTED_EDGE('',*,*,#380,.F.);
#299=ORIENTED_EDGE('',*,*,#371,.F.);
#300=ORIENTED_EDGE('',*,*,#381,.T.);
#301=ORIENTED_EDGE('',*,*,#382,.T.);
#302=ORIENTED_EDGE('',*,*,#383,.T.);
#303=ORIENTED_EDGE('',*,*,#382,.F.);
#304=ORIENTED_EDGE('',*,*,#383,.F.);
#305=ORIENTED_EDGE('',*,*,#375,.F.);
#306=ORIENTED_EDGE('',*,*,#381,.F.);
#307=ORIENTED_EDGE('',*,*,#378,.F.);
#308=ORIENTED_EDGE('',*,*,#359,.F.);
#309=ORIENTED_EDGE('',*,*,#356,.F.);
#310=ORIENTED_EDGE('',*,*,#357,.F.);
#311=ORIENTED_EDGE('',*,*,#369,.F.);
#312=ORIENTED_EDGE('',*,*,#377,.F.);
#313=ORIENTED_EDGE('',*,*,#362,.F.);
#314=ORIENTED_EDGE('',*,*,#363,.F.);
#315=ORIENTED_EDGE('',*,*,#361,.F.);
#316=ORIENTED_EDGE('',*,*,#373,.F.);
#317=ORIENTED_EDGE('',*,*,#364,.F.);
#318=ORIENTED_EDGE('',*,*,#367,.F.);
#319=ORIENTED_EDGE('',*,*,#365,.F.);
#320=ORIENTED_EDGE('',*,*,#372,.F.);
#321=ORIENTED_EDGE('',*,*,#370,.F.);
#322=ORIENTED_EDGE('',*,*,#368,.F.);
#323=ORIENTED_EDGE('',*,*,#366,.F.);
#324=ORIENTED_EDGE('',*,*,#376,.F.);
#325=ORIENTED_EDGE('',*,*,#374,.F.);
#326=ORIENTED_EDGE('',*,*,#360,.F.);
#327=ORIENTED_EDGE('',*,*,#358,.F.);
#328=VERTEX_POINT('',#585);
#329=VERTEX_POINT('',#587);
#330=VERTEX_POINT('',#590);
#331=VERTEX_POINT('',#592);
#332=VERTEX_POINT('',#595);
#333=VERTEX_POINT('',#597);
#334=VERTEX_POINT('',#600);
#335=VERTEX_POINT('',#602);
#336=VERTEX_POINT('',#605);
#337=VERTEX_POINT('',#607);
#338=VERTEX_POINT('',#610);
#339=VERTEX_POINT('',#612);
#340=VERTEX_POINT('',#615);
#341=VERTEX_POINT('',#617);
#342=VERTEX_POINT('',#620);
#343=VERTEX_POINT('',#622);
#344=VERTEX_POINT('',#625);
#345=VERTEX_POINT('',#627);
#346=VERTEX_POINT('',#630);
#347=VERTEX_POINT('',#632);
#348=VERTEX_POINT('',#635);
#349=VERTEX_POINT('',#637);
#350=VERTEX_POINT('',#640);
#351=VERTEX_POINT('',#642);
#352=VERTEX_POINT('',#645);
#353=VERTEX_POINT('',#649);
#354=VERTEX_POINT('',#651);
#355=VERTEX_POINT('',#654);
#356=EDGE_CURVE('',#328,#328,#384,.T.);
#357=EDGE_CURVE('',#329,#329,#385,.T.);
#358=EDGE_CURVE('',#330,#330,#386,.T.);
#359=EDGE_CURVE('',#331,#331,#387,.T.);
#360=EDGE_CURVE('',#332,#332,#388,.T.);
#361=EDGE_CURVE('',#333,#333,#389,.T.);
#362=EDGE_CURVE('',#334,#334,#390,.T.);
#363=EDGE_CURVE('',#335,#335,#391,.T.);
#364=EDGE_CURVE('',#336,#336,#392,.T.);
#365=EDGE_CURVE('',#337,#337,#393,.T.);
#366=EDGE_CURVE('',#338,#338,#394,.T.);
#367=EDGE_CURVE('',#339,#339,#395,.T.);
#368=EDGE_CURVE('',#340,#340,#396,.T.);
#369=EDGE_CURVE('',#341,#341,#397,.T.);
#370=EDGE_CURVE('',#342,#342,#398,.T.);
#371=EDGE_CURVE('',#343,#343,#399,.T.);
#372=EDGE_CURVE('',#344,#344,#400,.T.);
#373=EDGE_CURVE('',#345,#345,#401,.T.);
#374=EDGE_CURVE('',#346,#346,#402,.T.);
#375=EDGE_CURVE('',#347,#347,#403,.T.);
#376=EDGE_CURVE('',#348,#348,#404,.T.);
#377=EDGE_CURVE('',#349,#349,#405,.T.);
#378=EDGE_CURVE('',#350,#350,#406,.T.);
#379=EDGE_CURVE('',#351,#351,#407,.T.);
#380=EDGE_CURVE('',#352,#352,#408,.T.);
#381=EDGE_CURVE('',#353,#353,#409,.T.);
#382=EDGE_CURVE('',#354,#354,#410,.T.);
#383=EDGE_CURVE('',#355,#355,#411,.T.);
#384=CIRCLE('',#413,44.);
#385=CIRCLE('',#414,44.);
#386=CIRCLE('',#416,28.3);
#387=CIRCLE('',#417,43.5);
#388=CIRCLE('',#419,27.5);
#389=CIRCLE('',#420,27.5);
#390=CIRCLE('',#422,25.7);
#391=CIRCLE('',#423,27.3);
#392=CIRCLE('',#425,25.7);
#393=CIRCLE('',#426,27.3);
#394=CIRCLE('',#428,27.5);
#395=CIRCLE('',#429,27.5);
#396=CIRCLE('',#431,28.3);
#397=CIRCLE('',#432,43.5);
#398=CIRCLE('',#434,24.7);
#399=CIRCLE('',#435,21.155);
#400=CIRCLE('',#437,25.5);
#401=CIRCLE('',#438,25.5);
#402=CIRCLE('',#440,24.7);
#403=CIRCLE('',#441,21.155);
#404=CIRCLE('',#443,25.5);
#405=CIRCLE('',#444,25.5);
#406=CIRCLE('',#446,18.6);
#407=CIRCLE('',#447,19.476);
#408=CIRCLE('',#449,19.476);
#409=CIRCLE('',#452,18.6);
#410=CIRCLE('',#453,19.476);
#411=CIRCLE('',#455,19.476);
#412=AXIS2_PLACEMENT_3D('',#583,#469,#470);
#413=AXIS2_PLACEMENT_3D('',#584,#471,#472);
#414=AXIS2_PLACEMENT_3D('',#586,#473,#474);
#415=AXIS2_PLACEMENT_3D('',#588,#475,#476);
#416=AXIS2_PLACEMENT_3D('',#589,#477,#478);
#417=AXIS2_PLACEMENT_3D('',#591,#479,#480);
#418=AXIS2_PLACEMENT_3D('',#593,#481,#482);
#419=AXIS2_PLACEMENT_3D('',#594,#483,#484);
#420=AXIS2_PLACEMENT_3D('',#596,#485,#486);
#421=AXIS2_PLACEMENT_3D('',#598,#487,#488);
#422=AXIS2_PLACEMENT_3D('',#599,#489,#490);
#423=AXIS2_PLACEMENT_3D('',#601,#491,#492);
#424=AXIS2_PLACEMENT_3D('',#603,#493,#494);
#425=AXIS2_PLACEMENT_3D('',#604,#495,#496);
#426=AXIS2_PLACEMENT_3D('',#606,#497,#498);
#427=AXIS2_PLACEMENT_3D('',#608,#499,#500);
#428=AXIS2_PLACEMENT_3D('',#609,#501,#502);
#429=AXIS2_PLACEMENT_3D('',#611,#503,#504);
#430=AXIS2_PLACEMENT_3D('',#613,#505,#506);
#431=AXIS2_PLACEMENT_3D('',#614,#507,#508);
#432=AXIS2_PLACEMENT_3D('',#616,#509,#510);
#433=AXIS2_PLACEMENT_3D('',#618,#511,#512);
#434=AXIS2_PLACEMENT_3D('',#619,#513,#514);
#435=AXIS2_PLACEMENT_3D('',#621,#515,#516);
#436=AXIS2_PLACEMENT_3D('',#623,#517,#518);
#437=AXIS2_PLACEMENT_3D('',#624,#519,#520);
#438=AXIS2_PLACEMENT_3D('',#626,#521,#522);
#439=AXIS2_PLACEMENT_3D('',#628,#523,#524);
#440=AXIS2_PLACEMENT_3D('',#629,#525,#526);
#441=AXIS2_PLACEMENT_3D('',#631,#527,#528);
#442=AXIS2_PLACEMENT_3D('',#633,#529,#530);
#443=AXIS2_PLACEMENT_3D('',#634,#531,#532);
#444=AXIS2_PLACEMENT_3D('',#636,#533,#534);
#445=AXIS2_PLACEMENT_3D('',#638,#535,#536);
#446=AXIS2_PLACEMENT_3D('',#639,#537,#538);
#447=AXIS2_PLACEMENT_3D('',#641,#539,#540);
#448=AXIS2_PLACEMENT_3D('',#643,#541,#542);
#449=AXIS2_PLACEMENT_3D('',#644,#543,#544);
#450=AXIS2_PLACEMENT_3D('',#646,#545,#546);
#451=AXIS2_PLACEMENT_3D('',#647,#547,#548);
#452=AXIS2_PLACEMENT_3D('',#648,#549,#550);
#453=AXIS2_PLACEMENT_3D('',#650,#551,#552);
#454=AXIS2_PLACEMENT_3D('',#652,#553,#554);
#455=AXIS2_PLACEMENT_3D('',#653,#555,#556);
#456=AXIS2_PLACEMENT_3D('',#655,#557,#558);
#457=AXIS2_PLACEMENT_3D('',#656,#559,#560);
#458=AXIS2_PLACEMENT_3D('',#657,#561,#562);
#459=AXIS2_PLACEMENT_3D('',#658,#563,#564);
#460=AXIS2_PLACEMENT_3D('',#659,#565,#566);
#461=AXIS2_PLACEMENT_3D('',#660,#567,#568);
#462=AXIS2_PLACEMENT_3D('',#661,#569,#570);
#463=AXIS2_PLACEMENT_3D('',#662,#571,#572);
#464=AXIS2_PLACEMENT_3D('',#663,#573,#574);
#465=AXIS2_PLACEMENT_3D('',#664,#575,#576);
#466=AXIS2_PLACEMENT_3D('',#665,#577,#578);
#467=AXIS2_PLACEMENT_3D('',#666,#579,#580);
#468=AXIS2_PLACEMENT_3D('',#667,#581,#582);
#469=DIRECTION('',(0.,0.,1.));
#470=DIRECTION('',(1.,0.,0.));
#471=DIRECTION('',(-1.,0.,0.));
#472=DIRECTION('',(0.,0.,-1.));
#473=DIRECTION('',(1.,0.,0.));
#474=DIRECTION('',(0.,0.,1.));
#475=DIRECTION('',(-1.,0.,0.));
#476=DIRECTION('',(0.,0.,1.));
#477=DIRECTION('',(-1.,0.,0.));
#478=DIRECTION('',(0.,0.,-1.));
#479=DIRECTION('',(1.,0.,0.));
#480=DIRECTION('',(0.,0.,-1.));
#481=DIRECTION('',(1.,0.,0.));
#482=DIRECTION('',(0.,0.,-1.));
#483=DIRECTION('',(1.,0.,0.));
#484=DIRECTION('',(0.,0.,-1.));
#485=DIRECTION('',(-1.,0.,0.));
#486=DIRECTION('',(0.,0.,-1.));
#487=DIRECTION('',(-1.,0.,0.));
#488=DIRECTION('',(0.,0.,1.));
#489=DIRECTION('',(-1.,0.,0.));
#490=DIRECTION('',(0.,0.,-1.));
#491=DIRECTION('',(1.,0.,0.));
#492=DIRECTION('',(0.,0.,-1.));
#493=DIRECTION('',(1.,0.,0.));
#494=DIRECTION('',(0.,0.,-1.));
#495=DIRECTION('',(1.,0.,0.));
#496=DIRECTION('',(0.,0.,1.));
#497=DIRECTION('',(-1.,0.,0.));
#498=DIRECTION('',(0.,0.,1.));
#499=DIRECTION('',(-1.,0.,0.));
#500=DIRECTION('',(0.,0.,1.));
#501=DIRECTION('',(-1.,0.,0.));
#502=DIRECTION('',(0.,0.,1.));
#503=DIRECTION('',(1.,0.,0.));
#504=DIRECTION('',(0.,0.,1.));
#505=DIRECTION('',(-1.,0.,0.));
#506=DIRECTION('',(0.,0.,1.));
#507=DIRECTION('',(1.,0.,0.));
#508=DIRECTION('',(0.,0.,1.));
#509=DIRECTION('',(-1.,0.,0.));
#510=DIRECTION('',(0.,0.,1.));
#511=DIRECTION('',(-1.,0.,0.));
#512=DIRECTION('',(0.,0.,1.));
#513=DIRECTION('',(-1.,0.,0.));
#514=DIRECTION('',(0.,0.,-1.));
#515=DIRECTION('',(1.,0.,0.));
#516=DIRECTION('',(0.,0.,-1.));
#517=DIRECTION('',(1.,0.,0.));
#518=DIRECTION('',(0.,0.,-1.));
#519=DIRECTION('',(1.,0.,0.));
#520=DIRECTION('',(0.,0.,-1.));
#521=DIRECTION('',(-1.,0.,0.));
#522=DIRECTION('',(0.,0.,1.));
#523=DIRECTION('',(1.,0.,0.));
#524=DIRECTION('',(0.,0.,-1.));
#525=DIRECTION('',(1.,0.,0.));
#526=DIRECTION('',(0.,0.,1.));
#527=DIRECTION('',(-1.,0.,0.));
#528=DIRECTION('',(0.,0.,1.));
#529=DIRECTION('',(-1.,0.,0.));
#530=DIRECTION('',(0.,0.,1.));
#531=DIRECTION('',(-1.,0.,0.));
#532=DIRECTION('',(0.,0.,1.));
#533=DIRECTION('',(1.,0.,0.));
#534=DIRECTION('',(0.,0.,-1.));
#535=DIRECTION('',(-1.,0.,0.));
#536=DIRECTION('',(0.,0.,1.));
#537=DIRECTION('',(1.,0.,0.));
#538=DIRECTION('',(0.,0.,1.));
#539=DIRECTION('',(-1.,0.,0.));
#540=DIRECTION('',(0.,0.,-1.));
#541=DIRECTION('',(-1.,0.,0.));
#542=DIRECTION('',(-1.85448676455042E-17,0.,1.));
#543=DIRECTION('',(-1.,0.,0.));
#544=DIRECTION('',(0.,0.,-1.));
#545=DIRECTION('',(1.,0.,0.));
#546=DIRECTION('',(0.,0.,-1.));
#547=DIRECTION('',(-1.,0.,0.));
#548=DIRECTION('',(-5.22376592057883E-17,0.,1.));
#549=DIRECTION('',(-1.,0.,0.));
#550=DIRECTION('',(0.,0.,-1.));
#551=DIRECTION('',(1.,0.,0.));
#552=DIRECTION('',(0.,0.,1.));
#553=DIRECTION('',(1.,0.,0.));
#554=DIRECTION('',(-4.12108169900094E-18,0.,-1.));
#555=DIRECTION('',(1.,0.,0.));
#556=DIRECTION('',(0.,0.,1.));
#557=DIRECTION('',(-1.,0.,0.));
#558=DIRECTION('',(0.,0.,1.));
#559=DIRECTION('',(1.,0.,0.));
#560=DIRECTION('',(1.35902853218311E-17,0.,-1.));
#561=DIRECTION('',(-1.,0.,0.));
#562=DIRECTION('',(0.,0.,1.));
#563=DIRECTION('',(-1.,0.,0.));
#564=DIRECTION('',(-4.6525150696696E-17,0.,1.));
#565=DIRECTION('',(1.,0.,0.));
#566=DIRECTION('',(-3.32481739525981E-17,0.,-1.));
#567=DIRECTION('',(1.,0.,0.));
#568=DIRECTION('',(8.11803908032461E-17,0.,-1.));
#569=DIRECTION('',(-1.,0.,0.));
#570=DIRECTION('',(0.,0.,1.));
#571=DIRECTION('',(-1.,0.,0.));
#572=DIRECTION('',(0.,0.,1.));
#573=DIRECTION('',(1.,0.,0.));
#574=DIRECTION('',(0.,0.,-1.));
#575=DIRECTION('',(1.,0.,0.));
#576=DIRECTION('',(0.,0.,-1.));
#577=DIRECTION('',(-1.,0.,0.));
#578=DIRECTION('',(0.,0.,1.));
#579=DIRECTION('',(-1.,0.,0.));
#580=DIRECTION('',(0.,0.,1.));
#581=DIRECTION('',(1.,0.,0.));
#582=DIRECTION('',(0.,0.,-1.));
#583=CARTESIAN_POINT('',(0.,0.,0.));
#584=CARTESIAN_POINT('',(59.,0.,0.));
#585=CARTESIAN_POINT('',(59.,0.,-44.));
#586=CARTESIAN_POINT('',(23.,0.,0.));
#587=CARTESIAN_POINT('',(23.,0.,44.));
#588=CARTESIAN_POINT('',(0.,0.,0.));
#589=CARTESIAN_POINT('',(59.5,0.,0.));
#590=CARTESIAN_POINT('',(59.5,0.,-28.3));
#591=CARTESIAN_POINT('',(59.5,0.,0.));
#592=CARTESIAN_POINT('',(59.5,0.,-43.5));
#593=CARTESIAN_POINT('',(59.5,44.,0.));
#594=CARTESIAN_POINT('',(60.3,0.,0.));
#595=CARTESIAN_POINT('',(60.3,0.,-27.5));
#596=CARTESIAN_POINT('',(81.8,0.,0.));
#597=CARTESIAN_POINT('',(81.8,0.,-27.5));
#598=CARTESIAN_POINT('',(0.,0.,0.));
#599=CARTESIAN_POINT('',(82.,0.,0.));
#600=CARTESIAN_POINT('',(82.,0.,-25.7));
#601=CARTESIAN_POINT('',(82.,0.,0.));
#602=CARTESIAN_POINT('',(82.,0.,-27.3));
#603=CARTESIAN_POINT('',(82.,27.5,0.));
#604=CARTESIAN_POINT('',(0.,0.,0.));
#605=CARTESIAN_POINT('',(0.,0.,25.7));
#606=CARTESIAN_POINT('',(0.,0.,0.));
#607=CARTESIAN_POINT('',(0.,0.,27.3));
#608=CARTESIAN_POINT('',(0.,0.,0.));
#609=CARTESIAN_POINT('',(21.7,0.,0.));
#610=CARTESIAN_POINT('',(21.7,0.,27.5));
#611=CARTESIAN_POINT('',(0.2,0.,0.));
#612=CARTESIAN_POINT('',(0.2,0.,27.5));
#613=CARTESIAN_POINT('',(0.,0.,0.));
#614=CARTESIAN_POINT('',(22.5,0.,0.));
#615=CARTESIAN_POINT('',(22.5,0.,28.3));
#616=CARTESIAN_POINT('',(22.5,0.,0.));
#617=CARTESIAN_POINT('',(22.5,0.,43.5));
#618=CARTESIAN_POINT('',(22.5,27.5,0.));
#619=CARTESIAN_POINT('',(2.5,0.,0.));
#620=CARTESIAN_POINT('',(2.5,0.,-24.7));
#621=CARTESIAN_POINT('',(2.5,0.,0.));
#622=CARTESIAN_POINT('',(2.5,0.,-21.155));
#623=CARTESIAN_POINT('',(2.5,0.,0.));
#624=CARTESIAN_POINT('',(1.7,0.,0.));
#625=CARTESIAN_POINT('',(1.7,0.,-25.5));
#626=CARTESIAN_POINT('',(0.2,0.,0.));
#627=CARTESIAN_POINT('',(0.2,0.,25.5));
#628=CARTESIAN_POINT('',(0.,0.,0.));
#629=CARTESIAN_POINT('',(79.5,0.,0.));
#630=CARTESIAN_POINT('',(79.5,0.,24.7));
#631=CARTESIAN_POINT('',(79.5,0.,0.));
#632=CARTESIAN_POINT('',(79.5,0.,21.155));
#633=CARTESIAN_POINT('',(79.5,0.,0.));
#634=CARTESIAN_POINT('',(80.3,0.,0.));
#635=CARTESIAN_POINT('',(80.3,0.,25.5));
#636=CARTESIAN_POINT('',(81.8,0.,0.));
#637=CARTESIAN_POINT('',(81.8,0.,-25.5));
#638=CARTESIAN_POINT('',(82.,0.,0.));
#639=CARTESIAN_POINT('',(28.0263539022681,0.,0.));
#640=CARTESIAN_POINT('',(28.0263539022681,0.,18.6));
#641=CARTESIAN_POINT('',(27.5,0.,0.));
#642=CARTESIAN_POINT('',(27.5,0.,-19.476));
#643=CARTESIAN_POINT('',(27.5,0.,0.));
#644=CARTESIAN_POINT('',(4.179,0.,0.));
#645=CARTESIAN_POINT('',(4.179,0.,-19.476));
#646=CARTESIAN_POINT('',(2.5,0.,0.));
#647=CARTESIAN_POINT('',(2.5,0.,0.));
#648=CARTESIAN_POINT('',(53.9736460977319,0.,0.));
#649=CARTESIAN_POINT('',(53.9736460977319,0.,-18.6));
#650=CARTESIAN_POINT('',(54.5,0.,0.));
#651=CARTESIAN_POINT('',(54.5,0.,19.476));
#652=CARTESIAN_POINT('',(54.5,0.,0.));
#653=CARTESIAN_POINT('',(77.821,0.,0.));
#654=CARTESIAN_POINT('',(77.821,0.,19.476));
#655=CARTESIAN_POINT('',(79.5,0.,0.));
#656=CARTESIAN_POINT('',(79.5,0.,0.));
#657=CARTESIAN_POINT('',(79.5,0.,0.));
#658=CARTESIAN_POINT('',(59.,0.,0.));
#659=CARTESIAN_POINT('',(22.5,0.,0.));
#660=CARTESIAN_POINT('',(82.,0.,0.));
#661=CARTESIAN_POINT('',(81.8,0.,0.));
#662=CARTESIAN_POINT('',(0.,0.,0.));
#663=CARTESIAN_POINT('',(0.,0.,0.));
#664=CARTESIAN_POINT('',(1.7,0.,0.));
#665=CARTESIAN_POINT('',(21.7,0.,0.));
#666=CARTESIAN_POINT('',(80.3,0.,0.));
#667=CARTESIAN_POINT('',(60.3,0.,0.));
#668=MECHANICAL_DESIGN_GEOMETRIC_PRESENTATION_REPRESENTATION('',(#94),#669);
#669=(
GEOMETRIC_REPRESENTATION_CONTEXT(3)
GLOBAL_UNCERTAINTY_ASSIGNED_CONTEXT((#670))
GLOBAL_UNIT_ASSIGNED_CONTEXT((#676,#672,#671))
REPRESENTATION_CONTEXT('DGNT32','TOP_LEVEL_ASSEMBLY_PART')
);
#670=UNCERTAINTY_MEASURE_WITH_UNIT(LENGTH_MEASURE(2.E-5),#676,
'DISTANCE_ACCURACY_VALUE','Maximum Tolerance applied to model');
#671=(
NAMED_UNIT(*)
SI_UNIT($,.STERADIAN.)
SOLID_ANGLE_UNIT()
);
#672=(
CONVERSION_BASED_UNIT('DEGREE',#674)
NAMED_UNIT(#673)
PLANE_ANGLE_UNIT()
);
#673=DIMENSIONAL_EXPONENTS(0.,0.,0.,0.,0.,0.,0.);
#674=PLANE_ANGLE_MEASURE_WITH_UNIT(PLANE_ANGLE_MEASURE(0.0174532925),#675);
#675=(
NAMED_UNIT(*)
PLANE_ANGLE_UNIT()
SI_UNIT($,.RADIAN.)
);
#676=(
LENGTH_UNIT()
NAMED_UNIT(*)
SI_UNIT(.MILLI.,.METRE.)
);
ENDSEC;
END-ISO-10303-21;
