ISO-10303-21;
HEADER;
/* Generated by software containing ST-Developer
 * from STEP Tools, Inc. (www.steptools.com) 
 */
/* OPTION: using custom schema-name function */

FILE_DESCRIPTION(
/* description */ (''),
/* implementation_level */ '2;1');

FILE_NAME(
/* name */ 'DGNT50.stp',
/* time_stamp */ '2025-03-13T07:08:12+01:00',
/* author */ (''),
/* organization */ (''),
/* preprocessor_version */ 'ST-DEVELOPER v16.7',
/* originating_system */ 'SIEMENS PLM Software NX 1863',
/* authorisation */ '');

FILE_SCHEMA (('AP203_CONFIGURATION_CONTROLLED_3D_DESIGN_OF_MECHANICAL_PARTS_AND_ASSEMBLIES_MIM_LF { 1 0 10303 403 2 1 2}'));
ENDSEC;

DATA;
#10=SHAPE_REPRESENTATION_RELATIONSHIP('None',
'relationship between DGNT50_step-None and DGNT50_step-None',#92,#11);
#11=ADVANCED_BREP_SHAPE_REPRESENTATION('DGNT50_step-None',(#102),#629);
#12=CC_DESIGN_APPROVAL(#24,(#82));
#13=CC_DESIGN_APPROVAL(#25,(#84));
#14=CC_DESIGN_APPROVAL(#26,(#31));
#15=APPROVAL_PERSON_ORGANIZATION(#69,#24,#18);
#16=APPROVAL_PERSON_ORGANIZATION(#70,#25,#19);
#17=APPROVAL_PERSON_ORGANIZATION(#71,#26,#20);
#18=APPROVAL_ROLE('approver');
#19=APPROVAL_ROLE('approver');
#20=APPROVAL_ROLE('approver');
#21=APPROVAL_DATE_TIME(#39,#24);
#22=APPROVAL_DATE_TIME(#40,#25);
#23=APPROVAL_DATE_TIME(#41,#26);
#24=APPROVAL(#27,' ');
#25=APPROVAL(#28,' ');
#26=APPROVAL(#29,' ');
#27=APPROVAL_STATUS('not_yet_approved');
#28=APPROVAL_STATUS('not_yet_approved');
#29=APPROVAL_STATUS('not_yet_approved');
#30=CC_DESIGN_SECURITY_CLASSIFICATION(#31,(#84));
#31=SECURITY_CLASSIFICATION(' ',' ',#32);
#32=SECURITY_CLASSIFICATION_LEVEL('confidential');
#33=CC_DESIGN_DATE_AND_TIME_ASSIGNMENT(#37,#35,(#82));
#34=CC_DESIGN_DATE_AND_TIME_ASSIGNMENT(#38,#36,(#31));
#35=DATE_TIME_ROLE('creation_date');
#36=DATE_TIME_ROLE('classification_date');
#37=DATE_AND_TIME(#52,#42);
#38=DATE_AND_TIME(#53,#43);
#39=DATE_AND_TIME(#54,#44);
#40=DATE_AND_TIME(#55,#45);
#41=DATE_AND_TIME(#56,#46);
#42=LOCAL_TIME(0,0,0.,#47);
#43=LOCAL_TIME(0,0,0.,#48);
#44=LOCAL_TIME(0,0,0.,#49);
#45=LOCAL_TIME(0,0,0.,#50);
#46=LOCAL_TIME(0,0,0.,#51);
#47=COORDINATED_UNIVERSAL_TIME_OFFSET(0,0,.BEHIND.);
#48=COORDINATED_UNIVERSAL_TIME_OFFSET(0,0,.BEHIND.);
#49=COORDINATED_UNIVERSAL_TIME_OFFSET(0,0,.BEHIND.);
#50=COORDINATED_UNIVERSAL_TIME_OFFSET(0,0,.BEHIND.);
#51=COORDINATED_UNIVERSAL_TIME_OFFSET(0,0,.BEHIND.);
#52=CALENDAR_DATE(0,1,1);
#53=CALENDAR_DATE(0,1,1);
#54=CALENDAR_DATE(0,1,1);
#55=CALENDAR_DATE(0,1,1);
#56=CALENDAR_DATE(0,1,1);
#57=CC_DESIGN_PERSON_AND_ORGANIZATION_ASSIGNMENT(#65,#61,(#82,#84));
#58=CC_DESIGN_PERSON_AND_ORGANIZATION_ASSIGNMENT(#66,#62,(#86));
#59=CC_DESIGN_PERSON_AND_ORGANIZATION_ASSIGNMENT(#67,#63,(#84));
#60=CC_DESIGN_PERSON_AND_ORGANIZATION_ASSIGNMENT(#68,#64,(#31));
#61=PERSON_AND_ORGANIZATION_ROLE('creator');
#62=PERSON_AND_ORGANIZATION_ROLE('design_owner');
#63=PERSON_AND_ORGANIZATION_ROLE('design_supplier');
#64=PERSON_AND_ORGANIZATION_ROLE('classification_officer');
#65=PERSON_AND_ORGANIZATION(#79,#72);
#66=PERSON_AND_ORGANIZATION(#79,#73);
#67=PERSON_AND_ORGANIZATION(#79,#74);
#68=PERSON_AND_ORGANIZATION(#79,#75);
#69=PERSON_AND_ORGANIZATION(#79,#76);
#70=PERSON_AND_ORGANIZATION(#79,#77);
#71=PERSON_AND_ORGANIZATION(#79,#78);
#72=ORGANIZATION(' ',' ',' ');
#73=ORGANIZATION(' ',' ',' ');
#74=ORGANIZATION(' ',' ',' ');
#75=ORGANIZATION(' ',' ',' ');
#76=ORGANIZATION(' ',' ',' ');
#77=ORGANIZATION(' ',' ',' ');
#78=ORGANIZATION(' ',' ',' ');
#79=PERSON(' ',' ',' ',(' '),$,$);
#80=SHAPE_DEFINITION_REPRESENTATION(#81,#92);
#81=PRODUCT_DEFINITION_SHAPE('','',#82);
#82=PRODUCT_DEFINITION(' ','',#84,#83);
#83=DESIGN_CONTEXT('',#91,'design');
#84=PRODUCT_DEFINITION_FORMATION_WITH_SPECIFIED_SOURCE(' ',' ',#86,
 .NOT_KNOWN.);
#85=PRODUCT_RELATED_PRODUCT_CATEGORY('detail','',(#86));
#86=PRODUCT('DGNT50_step','DGNT50_step',' ',(#89));
#87=PRODUCT_CATEGORY('part',' ');
#88=PRODUCT_CATEGORY(' ','');
#89=MECHANICAL_CONTEXT(' ',#91,'mechanical');
#90=APPLICATION_PROTOCOL_DEFINITION('international standard',
'config_control_design',2010,#91);
#91=APPLICATION_CONTEXT(
'configuration controlled 3D designs of mechanical parts and assemblie
s');
#92=SHAPE_REPRESENTATION('DGNT50_step-None',(#390),#629);
#93=PRESENTATION_LAYER_ASSIGNMENT('1','Layer 1',(#102));
#94=STYLED_ITEM('',(#95),#102);
#95=PRESENTATION_STYLE_ASSIGNMENT((#96));
#96=SURFACE_STYLE_USAGE(.BOTH.,#97);
#97=SURFACE_SIDE_STYLE('',(#98));
#98=SURFACE_STYLE_FILL_AREA(#99);
#99=FILL_AREA_STYLE('',(#100));
#100=FILL_AREA_STYLE_COLOUR('',#101);
#101=COLOUR_RGB('Medium Steel',0.596063172350652,0.666666666666667,0.686259250782025);
#102=MANIFOLD_SOLID_BREP('',#103);
#103=CLOSED_SHELL('',(#122,#123,#124,#125,#126,#127,#128,#129,#130,#131,
#132,#133,#134,#135,#136,#137,#138,#139,#140,#141,#142,#143,#144,#145,#146,
#147));
#104=CONICAL_SURFACE('',#437,25.0000000000017,45.0000000000668);
#105=CONICAL_SURFACE('',#438,25.0000000000017,45.0000000000668);
#106=CONICAL_SURFACE('',#439,28.328,45.);
#107=CONICAL_SURFACE('',#440,30.328,45.);
#108=CONICAL_SURFACE('',#441,38.25,45.);
#109=CONICAL_SURFACE('',#442,39.25,45.);
#110=TOROIDAL_SURFACE('',#433,42.75,3.5);
#111=TOROIDAL_SURFACE('',#434,42.75,3.5);
#112=TOROIDAL_SURFACE('',#435,55.,4.);
#113=TOROIDAL_SURFACE('',#436,55.,4.);
#114=CYLINDRICAL_SURFACE('',#396,39.25);
#115=CYLINDRICAL_SURFACE('',#402,59.);
#116=CYLINDRICAL_SURFACE('',#408,39.25);
#117=CYLINDRICAL_SURFACE('',#415,35.4999999999998);
#118=CYLINDRICAL_SURFACE('',#420,28.328);
#119=CYLINDRICAL_SURFACE('',#424,35.5000000000014);
#120=CYLINDRICAL_SURFACE('',#429,28.328);
#121=CYLINDRICAL_SURFACE('',#432,25.0000000000017);
#122=ADVANCED_FACE('',(#156,#157),#148,.T.);
#123=ADVANCED_FACE('',(#158,#159),#114,.T.);
#124=ADVANCED_FACE('',(#160,#161),#149,.T.);
#125=ADVANCED_FACE('',(#162,#163),#115,.T.);
#126=ADVANCED_FACE('',(#164,#165),#150,.T.);
#127=ADVANCED_FACE('',(#166,#167),#116,.T.);
#128=ADVANCED_FACE('',(#168,#169),#151,.T.);
#129=ADVANCED_FACE('',(#170,#171),#152,.T.);
#130=ADVANCED_FACE('',(#172,#173),#117,.F.);
#131=ADVANCED_FACE('',(#174,#175),#153,.F.);
#132=ADVANCED_FACE('',(#176,#177),#118,.F.);
#133=ADVANCED_FACE('',(#178,#179),#154,.F.);
#134=ADVANCED_FACE('',(#180,#181),#119,.F.);
#135=ADVANCED_FACE('',(#182,#183),#155,.F.);
#136=ADVANCED_FACE('',(#184,#185),#120,.F.);
#137=ADVANCED_FACE('',(#186,#187),#121,.F.);
#138=ADVANCED_FACE('',(#188,#189),#110,.F.);
#139=ADVANCED_FACE('',(#190,#191),#111,.F.);
#140=ADVANCED_FACE('',(#192,#193),#112,.T.);
#141=ADVANCED_FACE('',(#194,#195),#113,.T.);
#142=ADVANCED_FACE('',(#196,#197),#104,.F.);
#143=ADVANCED_FACE('',(#198,#199),#105,.F.);
#144=ADVANCED_FACE('',(#200,#201),#106,.F.);
#145=ADVANCED_FACE('',(#202,#203),#107,.F.);
#146=ADVANCED_FACE('',(#204,#205),#108,.T.);
#147=ADVANCED_FACE('',(#206,#207),#109,.T.);
#148=PLANE('',#393);
#149=PLANE('',#399);
#150=PLANE('',#405);
#151=PLANE('',#411);
#152=PLANE('',#414);
#153=PLANE('',#418);
#154=PLANE('',#423);
#155=PLANE('',#427);
#156=FACE_BOUND('',#208,.T.);
#157=FACE_BOUND('',#209,.T.);
#158=FACE_BOUND('',#210,.T.);
#159=FACE_BOUND('',#211,.T.);
#160=FACE_BOUND('',#212,.T.);
#161=FACE_BOUND('',#213,.T.);
#162=FACE_BOUND('',#214,.T.);
#163=FACE_BOUND('',#215,.T.);
#164=FACE_BOUND('',#216,.T.);
#165=FACE_BOUND('',#217,.T.);
#166=FACE_BOUND('',#218,.T.);
#167=FACE_BOUND('',#219,.T.);
#168=FACE_BOUND('',#220,.T.);
#169=FACE_BOUND('',#221,.T.);
#170=FACE_BOUND('',#222,.T.);
#171=FACE_BOUND('',#223,.T.);
#172=FACE_BOUND('',#224,.T.);
#173=FACE_BOUND('',#225,.T.);
#174=FACE_BOUND('',#226,.T.);
#175=FACE_BOUND('',#227,.T.);
#176=FACE_BOUND('',#228,.T.);
#177=FACE_BOUND('',#229,.T.);
#178=FACE_BOUND('',#230,.T.);
#179=FACE_BOUND('',#231,.T.);
#180=FACE_BOUND('',#232,.T.);
#181=FACE_BOUND('',#233,.T.);
#182=FACE_BOUND('',#234,.T.);
#183=FACE_BOUND('',#235,.T.);
#184=FACE_BOUND('',#236,.T.);
#185=FACE_BOUND('',#237,.T.);
#186=FACE_BOUND('',#238,.T.);
#187=FACE_BOUND('',#239,.T.);
#188=FACE_BOUND('',#240,.T.);
#189=FACE_BOUND('',#241,.T.);
#190=FACE_BOUND('',#242,.T.);
#191=FACE_BOUND('',#243,.T.);
#192=FACE_BOUND('',#244,.T.);
#193=FACE_BOUND('',#245,.T.);
#194=FACE_BOUND('',#246,.T.);
#195=FACE_BOUND('',#247,.T.);
#196=FACE_BOUND('',#248,.T.);
#197=FACE_BOUND('',#249,.T.);
#198=FACE_BOUND('',#250,.T.);
#199=FACE_BOUND('',#251,.T.);
#200=FACE_BOUND('',#252,.T.);
#201=FACE_BOUND('',#253,.T.);
#202=FACE_BOUND('',#254,.T.);
#203=FACE_BOUND('',#255,.T.);
#204=FACE_BOUND('',#256,.T.);
#205=FACE_BOUND('',#257,.T.);
#206=FACE_BOUND('',#258,.T.);
#207=FACE_BOUND('',#259,.T.);
#208=EDGE_LOOP('',(#260));
#209=EDGE_LOOP('',(#261));
#210=EDGE_LOOP('',(#262));
#211=EDGE_LOOP('',(#263));
#212=EDGE_LOOP('',(#264));
#213=EDGE_LOOP('',(#265));
#214=EDGE_LOOP('',(#266));
#215=EDGE_LOOP('',(#267));
#216=EDGE_LOOP('',(#268));
#217=EDGE_LOOP('',(#269));
#218=EDGE_LOOP('',(#270));
#219=EDGE_LOOP('',(#271));
#220=EDGE_LOOP('',(#272));
#221=EDGE_LOOP('',(#273));
#222=EDGE_LOOP('',(#274));
#223=EDGE_LOOP('',(#275));
#224=EDGE_LOOP('',(#276));
#225=EDGE_LOOP('',(#277));
#226=EDGE_LOOP('',(#278));
#227=EDGE_LOOP('',(#279));
#228=EDGE_LOOP('',(#280));
#229=EDGE_LOOP('',(#281));
#230=EDGE_LOOP('',(#282));
#231=EDGE_LOOP('',(#283));
#232=EDGE_LOOP('',(#284));
#233=EDGE_LOOP('',(#285));
#234=EDGE_LOOP('',(#286));
#235=EDGE_LOOP('',(#287));
#236=EDGE_LOOP('',(#288));
#237=EDGE_LOOP('',(#289));
#238=EDGE_LOOP('',(#290));
#239=EDGE_LOOP('',(#291));
#240=EDGE_LOOP('',(#292));
#241=EDGE_LOOP('',(#293));
#242=EDGE_LOOP('',(#294));
#243=EDGE_LOOP('',(#295));
#244=EDGE_LOOP('',(#296));
#245=EDGE_LOOP('',(#297));
#246=EDGE_LOOP('',(#298));
#247=EDGE_LOOP('',(#299));
#248=EDGE_LOOP('',(#300));
#249=EDGE_LOOP('',(#301));
#250=EDGE_LOOP('',(#302));
#251=EDGE_LOOP('',(#303));
#252=EDGE_LOOP('',(#304));
#253=EDGE_LOOP('',(#305));
#254=EDGE_LOOP('',(#306));
#255=EDGE_LOOP('',(#307));
#256=EDGE_LOOP('',(#308));
#257=EDGE_LOOP('',(#309));
#258=EDGE_LOOP('',(#310));
#259=EDGE_LOOP('',(#311));
#260=ORIENTED_EDGE('',*,*,#338,.T.);
#261=ORIENTED_EDGE('',*,*,#339,.F.);
#262=ORIENTED_EDGE('',*,*,#340,.T.);
#263=ORIENTED_EDGE('',*,*,#341,.T.);
#264=ORIENTED_EDGE('',*,*,#342,.T.);
#265=ORIENTED_EDGE('',*,*,#343,.T.);
#266=ORIENTED_EDGE('',*,*,#344,.T.);
#267=ORIENTED_EDGE('',*,*,#345,.T.);
#268=ORIENTED_EDGE('',*,*,#346,.T.);
#269=ORIENTED_EDGE('',*,*,#347,.T.);
#270=ORIENTED_EDGE('',*,*,#348,.T.);
#271=ORIENTED_EDGE('',*,*,#349,.T.);
#272=ORIENTED_EDGE('',*,*,#350,.T.);
#273=ORIENTED_EDGE('',*,*,#351,.T.);
#274=ORIENTED_EDGE('',*,*,#352,.T.);
#275=ORIENTED_EDGE('',*,*,#353,.F.);
#276=ORIENTED_EDGE('',*,*,#353,.T.);
#277=ORIENTED_EDGE('',*,*,#339,.T.);
#278=ORIENTED_EDGE('',*,*,#354,.T.);
#279=ORIENTED_EDGE('',*,*,#355,.T.);
#280=ORIENTED_EDGE('',*,*,#356,.T.);
#281=ORIENTED_EDGE('',*,*,#355,.F.);
#282=ORIENTED_EDGE('',*,*,#357,.T.);
#283=ORIENTED_EDGE('',*,*,#358,.T.);
#284=ORIENTED_EDGE('',*,*,#358,.F.);
#285=ORIENTED_EDGE('',*,*,#351,.F.);
#286=ORIENTED_EDGE('',*,*,#359,.T.);
#287=ORIENTED_EDGE('',*,*,#360,.T.);
#288=ORIENTED_EDGE('',*,*,#361,.T.);
#289=ORIENTED_EDGE('',*,*,#360,.F.);
#290=ORIENTED_EDGE('',*,*,#362,.T.);
#291=ORIENTED_EDGE('',*,*,#363,.T.);
#292=ORIENTED_EDGE('',*,*,#347,.F.);
#293=ORIENTED_EDGE('',*,*,#349,.F.);
#294=ORIENTED_EDGE('',*,*,#341,.F.);
#295=ORIENTED_EDGE('',*,*,#343,.F.);
#296=ORIENTED_EDGE('',*,*,#342,.F.);
#297=ORIENTED_EDGE('',*,*,#344,.F.);
#298=ORIENTED_EDGE('',*,*,#345,.F.);
#299=ORIENTED_EDGE('',*,*,#346,.F.);
#300=ORIENTED_EDGE('',*,*,#359,.F.);
#301=ORIENTED_EDGE('',*,*,#362,.F.);
#302=ORIENTED_EDGE('',*,*,#354,.F.);
#303=ORIENTED_EDGE('',*,*,#363,.F.);
#304=ORIENTED_EDGE('',*,*,#357,.F.);
#305=ORIENTED_EDGE('',*,*,#361,.F.);
#306=ORIENTED_EDGE('',*,*,#356,.F.);
#307=ORIENTED_EDGE('',*,*,#352,.F.);
#308=ORIENTED_EDGE('',*,*,#348,.F.);
#309=ORIENTED_EDGE('',*,*,#350,.F.);
#310=ORIENTED_EDGE('',*,*,#338,.F.);
#311=ORIENTED_EDGE('',*,*,#340,.F.);
#312=VERTEX_POINT('',#551);
#313=VERTEX_POINT('',#553);
#314=VERTEX_POINT('',#556);
#315=VERTEX_POINT('',#558);
#316=VERTEX_POINT('',#561);
#317=VERTEX_POINT('',#563);
#318=VERTEX_POINT('',#566);
#319=VERTEX_POINT('',#568);
#320=VERTEX_POINT('',#571);
#321=VERTEX_POINT('',#573);
#322=VERTEX_POINT('',#576);
#323=VERTEX_POINT('',#578);
#324=VERTEX_POINT('',#581);
#325=VERTEX_POINT('',#583);
#326=VERTEX_POINT('',#586);
#327=VERTEX_POINT('',#588);
#328=VERTEX_POINT('',#592);
#329=VERTEX_POINT('',#594);
#330=VERTEX_POINT('',#597);
#331=VERTEX_POINT('',#600);
#332=VERTEX_POINT('',#602);
#333=VERTEX_POINT('',#606);
#334=VERTEX_POINT('',#608);
#335=VERTEX_POINT('',#611);
#336=VERTEX_POINT('',#614);
#337=VERTEX_POINT('',#616);
#338=EDGE_CURVE('',#312,#312,#364,.T.);
#339=EDGE_CURVE('',#313,#313,#365,.T.);
#340=EDGE_CURVE('',#314,#314,#366,.T.);
#341=EDGE_CURVE('',#315,#315,#367,.T.);
#342=EDGE_CURVE('',#316,#316,#368,.T.);
#343=EDGE_CURVE('',#317,#317,#369,.T.);
#344=EDGE_CURVE('',#318,#318,#370,.T.);
#345=EDGE_CURVE('',#319,#319,#371,.T.);
#346=EDGE_CURVE('',#320,#320,#372,.T.);
#347=EDGE_CURVE('',#321,#321,#373,.T.);
#348=EDGE_CURVE('',#322,#322,#374,.T.);
#349=EDGE_CURVE('',#323,#323,#375,.T.);
#350=EDGE_CURVE('',#324,#324,#376,.T.);
#351=EDGE_CURVE('',#325,#325,#377,.T.);
#352=EDGE_CURVE('',#326,#326,#378,.T.);
#353=EDGE_CURVE('',#327,#327,#379,.T.);
#354=EDGE_CURVE('',#328,#328,#380,.T.);
#355=EDGE_CURVE('',#329,#329,#381,.T.);
#356=EDGE_CURVE('',#330,#330,#382,.T.);
#357=EDGE_CURVE('',#331,#331,#383,.T.);
#358=EDGE_CURVE('',#332,#332,#384,.T.);
#359=EDGE_CURVE('',#333,#333,#385,.T.);
#360=EDGE_CURVE('',#334,#334,#386,.T.);
#361=EDGE_CURVE('',#335,#335,#387,.T.);
#362=EDGE_CURVE('',#336,#336,#388,.T.);
#363=EDGE_CURVE('',#337,#337,#389,.T.);
#364=CIRCLE('',#391,38.25);
#365=CIRCLE('',#392,35.4999999999998);
#366=CIRCLE('',#394,39.25);
#367=CIRCLE('',#395,39.25);
#368=CIRCLE('',#397,55.);
#369=CIRCLE('',#398,42.75);
#370=CIRCLE('',#400,59.);
#371=CIRCLE('',#401,59.);
#372=CIRCLE('',#403,55.);
#373=CIRCLE('',#404,42.75);
#374=CIRCLE('',#406,39.25);
#375=CIRCLE('',#407,39.25);
#376=CIRCLE('',#409,38.25);
#377=CIRCLE('',#410,35.5000000000014);
#378=CIRCLE('',#412,30.328);
#379=CIRCLE('',#413,35.4999999999998);
#380=CIRCLE('',#416,26.0000000000028);
#381=CIRCLE('',#417,28.328);
#382=CIRCLE('',#419,28.328);
#383=CIRCLE('',#421,30.328);
#384=CIRCLE('',#422,35.5000000000014);
#385=CIRCLE('',#425,26.0000000000039);
#386=CIRCLE('',#426,28.328);
#387=CIRCLE('',#428,28.328);
#388=CIRCLE('',#430,25.0000000000017);
#389=CIRCLE('',#431,25.0000000000017);
#390=AXIS2_PLACEMENT_3D('',#549,#443,#444);
#391=AXIS2_PLACEMENT_3D('',#550,#445,#446);
#392=AXIS2_PLACEMENT_3D('',#552,#447,#448);
#393=AXIS2_PLACEMENT_3D('',#554,#449,#450);
#394=AXIS2_PLACEMENT_3D('',#555,#451,#452);
#395=AXIS2_PLACEMENT_3D('',#557,#453,#454);
#396=AXIS2_PLACEMENT_3D('',#559,#455,#456);
#397=AXIS2_PLACEMENT_3D('',#560,#457,#458);
#398=AXIS2_PLACEMENT_3D('',#562,#459,#460);
#399=AXIS2_PLACEMENT_3D('',#564,#461,#462);
#400=AXIS2_PLACEMENT_3D('',#565,#463,#464);
#401=AXIS2_PLACEMENT_3D('',#567,#465,#466);
#402=AXIS2_PLACEMENT_3D('',#569,#467,#468);
#403=AXIS2_PLACEMENT_3D('',#570,#469,#470);
#404=AXIS2_PLACEMENT_3D('',#572,#471,#472);
#405=AXIS2_PLACEMENT_3D('',#574,#473,#474);
#406=AXIS2_PLACEMENT_3D('',#575,#475,#476);
#407=AXIS2_PLACEMENT_3D('',#577,#477,#478);
#408=AXIS2_PLACEMENT_3D('',#579,#479,#480);
#409=AXIS2_PLACEMENT_3D('',#580,#481,#482);
#410=AXIS2_PLACEMENT_3D('',#582,#483,#484);
#411=AXIS2_PLACEMENT_3D('',#584,#485,#486);
#412=AXIS2_PLACEMENT_3D('',#585,#487,#488);
#413=AXIS2_PLACEMENT_3D('',#587,#489,#490);
#414=AXIS2_PLACEMENT_3D('',#589,#491,#492);
#415=AXIS2_PLACEMENT_3D('',#590,#493,#494);
#416=AXIS2_PLACEMENT_3D('',#591,#495,#496);
#417=AXIS2_PLACEMENT_3D('',#593,#497,#498);
#418=AXIS2_PLACEMENT_3D('',#595,#499,#500);
#419=AXIS2_PLACEMENT_3D('',#596,#501,#502);
#420=AXIS2_PLACEMENT_3D('',#598,#503,#504);
#421=AXIS2_PLACEMENT_3D('',#599,#505,#506);
#422=AXIS2_PLACEMENT_3D('',#601,#507,#508);
#423=AXIS2_PLACEMENT_3D('',#603,#509,#510);
#424=AXIS2_PLACEMENT_3D('',#604,#511,#512);
#425=AXIS2_PLACEMENT_3D('',#605,#513,#514);
#426=AXIS2_PLACEMENT_3D('',#607,#515,#516);
#427=AXIS2_PLACEMENT_3D('',#609,#517,#518);
#428=AXIS2_PLACEMENT_3D('',#610,#519,#520);
#429=AXIS2_PLACEMENT_3D('',#612,#521,#522);
#430=AXIS2_PLACEMENT_3D('',#613,#523,#524);
#431=AXIS2_PLACEMENT_3D('',#615,#525,#526);
#432=AXIS2_PLACEMENT_3D('',#617,#527,#528);
#433=AXIS2_PLACEMENT_3D('',#618,#529,#530);
#434=AXIS2_PLACEMENT_3D('',#619,#531,#532);
#435=AXIS2_PLACEMENT_3D('',#620,#533,#534);
#436=AXIS2_PLACEMENT_3D('',#621,#535,#536);
#437=AXIS2_PLACEMENT_3D('',#622,#537,#538);
#438=AXIS2_PLACEMENT_3D('',#623,#539,#540);
#439=AXIS2_PLACEMENT_3D('',#624,#541,#542);
#440=AXIS2_PLACEMENT_3D('',#625,#543,#544);
#441=AXIS2_PLACEMENT_3D('',#626,#545,#546);
#442=AXIS2_PLACEMENT_3D('',#627,#547,#548);
#443=DIRECTION('',(0.,0.,1.));
#444=DIRECTION('',(1.,0.,0.));
#445=DIRECTION('',(-1.,0.,0.));
#446=DIRECTION('',(0.,0.,1.));
#447=DIRECTION('',(-1.,0.,0.));
#448=DIRECTION('',(0.,1.,6.12323399573677E-17));
#449=DIRECTION('',(-1.,0.,0.));
#450=DIRECTION('',(0.,0.,1.));
#451=DIRECTION('',(1.,0.,0.));
#452=DIRECTION('',(0.,0.,1.));
#453=DIRECTION('',(-1.,0.,0.));
#454=DIRECTION('',(0.,0.,1.));
#455=DIRECTION('',(1.,0.,0.));
#456=DIRECTION('',(0.,0.,-1.));
#457=DIRECTION('',(-1.,0.,0.));
#458=DIRECTION('',(0.,0.,1.));
#459=DIRECTION('',(1.,0.,0.));
#460=DIRECTION('',(0.,0.,1.));
#461=DIRECTION('',(-1.,0.,0.));
#462=DIRECTION('',(0.,0.,1.));
#463=DIRECTION('',(1.,0.,0.));
#464=DIRECTION('',(0.,0.,1.));
#465=DIRECTION('',(-1.,0.,0.));
#466=DIRECTION('',(0.,0.,-1.));
#467=DIRECTION('',(1.,0.,0.));
#468=DIRECTION('',(0.,0.,-1.));
#469=DIRECTION('',(1.,0.,0.));
#470=DIRECTION('',(0.,0.,-1.));
#471=DIRECTION('',(-1.,0.,0.));
#472=DIRECTION('',(0.,0.,-1.));
#473=DIRECTION('',(1.,0.,0.));
#474=DIRECTION('',(0.,0.,-1.));
#475=DIRECTION('',(-1.,0.,0.));
#476=DIRECTION('',(0.,0.,-1.));
#477=DIRECTION('',(1.,0.,0.));
#478=DIRECTION('',(0.,0.,-1.));
#479=DIRECTION('',(1.,0.,0.));
#480=DIRECTION('',(0.,0.,-1.));
#481=DIRECTION('',(1.,0.,0.));
#482=DIRECTION('',(0.,0.,-1.));
#483=DIRECTION('',(-1.,0.,0.));
#484=DIRECTION('',(0.,1.,6.12323399573677E-17));
#485=DIRECTION('',(1.,0.,0.));
#486=DIRECTION('',(0.,0.,-1.));
#487=DIRECTION('',(1.,0.,0.));
#488=DIRECTION('',(0.,0.,1.));
#489=DIRECTION('',(1.,0.,0.));
#490=DIRECTION('',(0.,1.,6.12323399573677E-17));
#491=DIRECTION('',(-1.,0.,0.));
#492=DIRECTION('',(0.,0.,1.));
#493=DIRECTION('',(-1.,0.,0.));
#494=DIRECTION('',(0.,0.,1.));
#495=DIRECTION('',(1.,0.,0.));
#496=DIRECTION('',(0.,0.,-1.));
#497=DIRECTION('',(-1.,0.,0.));
#498=DIRECTION('',(0.,0.,-1.));
#499=DIRECTION('',(1.,0.,0.));
#500=DIRECTION('',(0.,0.,-1.));
#501=DIRECTION('',(-1.,0.,0.));
#502=DIRECTION('',(0.,0.,1.));
#503=DIRECTION('',(1.,0.,0.));
#504=DIRECTION('',(0.,0.,-1.));
#505=DIRECTION('',(-1.,0.,0.));
#506=DIRECTION('',(0.,0.,1.));
#507=DIRECTION('',(1.,0.,0.));
#508=DIRECTION('',(0.,1.,6.12323399573677E-17));
#509=DIRECTION('',(-1.,0.,0.));
#510=DIRECTION('',(0.,0.,1.));
#511=DIRECTION('',(1.,0.,0.));
#512=DIRECTION('',(0.,0.,-1.));
#513=DIRECTION('',(-1.,0.,0.));
#514=DIRECTION('',(0.,0.,1.));
#515=DIRECTION('',(1.,0.,0.));
#516=DIRECTION('',(0.,0.,1.));
#517=DIRECTION('',(-1.,0.,0.));
#518=DIRECTION('',(0.,0.,1.));
#519=DIRECTION('',(1.,0.,0.));
#520=DIRECTION('',(0.,0.,1.));
#521=DIRECTION('',(-1.,0.,0.));
#522=DIRECTION('',(0.,0.,1.));
#523=DIRECTION('',(1.,0.,0.));
#524=DIRECTION('',(0.,0.,1.));
#525=DIRECTION('',(-1.,0.,0.));
#526=DIRECTION('',(0.,0.,-1.));
#527=DIRECTION('',(-1.,0.,0.));
#528=DIRECTION('',(0.,0.,1.));
#529=DIRECTION('',(1.,0.,0.));
#530=DIRECTION('',(0.,0.,-1.));
#531=DIRECTION('',(-1.,0.,0.));
#532=DIRECTION('',(0.,0.,1.));
#533=DIRECTION('',(-1.,0.,0.));
#534=DIRECTION('',(0.,0.,1.));
#535=DIRECTION('',(1.,0.,0.));
#536=DIRECTION('',(0.,0.,-1.));
#537=DIRECTION('',(1.,0.,0.));
#538=DIRECTION('',(0.,0.,-1.));
#539=DIRECTION('',(-1.,0.,0.));
#540=DIRECTION('',(0.,0.,1.));
#541=DIRECTION('',(1.,0.,0.));
#542=DIRECTION('',(9.44684134388067E-17,0.,-1.));
#543=DIRECTION('',(-1.,0.,0.));
#544=DIRECTION('',(6.73464557297018E-18,0.,1.));
#545=DIRECTION('',(-1.,0.,0.));
#546=DIRECTION('',(-1.33665184761035E-17,0.,1.));
#547=DIRECTION('',(1.,0.,0.));
#548=DIRECTION('',(-1.00987029392924E-16,0.,-1.));
#549=CARTESIAN_POINT('',(0.,0.,0.));
#550=CARTESIAN_POINT('',(-5.24580379135386E-15,0.,0.));
#551=CARTESIAN_POINT('',(-5.24580379135386E-15,0.,38.25));
#552=CARTESIAN_POINT('',(-5.24580379135386E-15,0.,0.));
#553=CARTESIAN_POINT('',(-5.24580379135386E-15,35.4999999999998,2.17374806848654E-15));
#554=CARTESIAN_POINT('',(-5.24580379135386E-15,39.25,0.));
#555=CARTESIAN_POINT('',(0.999999999999995,0.,0.));
#556=CARTESIAN_POINT('',(0.999999999999995,0.,39.25));
#557=CARTESIAN_POINT('',(21.5,0.,0.));
#558=CARTESIAN_POINT('',(21.5,0.,39.25));
#559=CARTESIAN_POINT('',(-3.5527136788005E-15,0.,0.));
#560=CARTESIAN_POINT('',(25.,0.,0.));
#561=CARTESIAN_POINT('',(25.,0.,55.));
#562=CARTESIAN_POINT('',(25.,0.,0.));
#563=CARTESIAN_POINT('',(25.,0.,42.75));
#564=CARTESIAN_POINT('',(25.,59.,0.));
#565=CARTESIAN_POINT('',(29.,0.,0.));
#566=CARTESIAN_POINT('',(29.,0.,59.));
#567=CARTESIAN_POINT('',(66.,0.,0.));
#568=CARTESIAN_POINT('',(66.,0.,-59.));
#569=CARTESIAN_POINT('',(-3.5527136788005E-15,0.,0.));
#570=CARTESIAN_POINT('',(70.,0.,0.));
#571=CARTESIAN_POINT('',(70.,0.,-55.));
#572=CARTESIAN_POINT('',(70.,0.,0.));
#573=CARTESIAN_POINT('',(70.,0.,-42.75));
#574=CARTESIAN_POINT('',(70.,39.25,0.));
#575=CARTESIAN_POINT('',(97.,0.,0.));
#576=CARTESIAN_POINT('',(97.,0.,-39.25));
#577=CARTESIAN_POINT('',(73.5,0.,0.));
#578=CARTESIAN_POINT('',(73.5,0.,-39.25));
#579=CARTESIAN_POINT('',(-3.5527136788005E-15,0.,0.));
#580=CARTESIAN_POINT('',(98.,0.,0.));
#581=CARTESIAN_POINT('',(98.,0.,-38.25));
#582=CARTESIAN_POINT('',(98.,0.,0.));
#583=CARTESIAN_POINT('',(98.,35.5000000000014,2.17374806848663E-15));
#584=CARTESIAN_POINT('',(98.,0.,0.));
#585=CARTESIAN_POINT('',(1.99999999999999,0.,0.));
#586=CARTESIAN_POINT('',(1.99999999999999,0.,30.328));
#587=CARTESIAN_POINT('',(1.99999999999999,0.,0.));
#588=CARTESIAN_POINT('',(1.99999999999999,35.4999999999998,2.17374806848654E-15));
#589=CARTESIAN_POINT('',(1.99999999999999,0.,0.));
#590=CARTESIAN_POINT('',(1.99999999999999,0.,0.));
#591=CARTESIAN_POINT('',(30.,0.,0.));
#592=CARTESIAN_POINT('',(30.,0.,-26.0000000000028));
#593=CARTESIAN_POINT('',(30.,0.,0.));
#594=CARTESIAN_POINT('',(30.,0.,-28.328));
#595=CARTESIAN_POINT('',(30.,0.,0.));
#596=CARTESIAN_POINT('',(3.99999999999999,0.,0.));
#597=CARTESIAN_POINT('',(3.99999999999999,0.,28.328));
#598=CARTESIAN_POINT('',(-6.93889390390723E-15,0.,0.));
#599=CARTESIAN_POINT('',(96.,0.,0.));
#600=CARTESIAN_POINT('',(96.,0.,30.328));
#601=CARTESIAN_POINT('',(96.,0.,0.));
#602=CARTESIAN_POINT('',(96.,35.5000000000014,2.17374806848663E-15));
#603=CARTESIAN_POINT('',(96.,0.,0.));
#604=CARTESIAN_POINT('',(96.,0.,0.));
#605=CARTESIAN_POINT('',(68.,0.,0.));
#606=CARTESIAN_POINT('',(68.,0.,26.0000000000039));
#607=CARTESIAN_POINT('',(68.,0.,0.));
#608=CARTESIAN_POINT('',(68.,0.,28.328));
#609=CARTESIAN_POINT('',(68.,0.,0.));
#610=CARTESIAN_POINT('',(94.,0.,0.));
#611=CARTESIAN_POINT('',(94.,0.,28.328));
#612=CARTESIAN_POINT('',(98.,0.,0.));
#613=CARTESIAN_POINT('',(67.0000000000002,0.,0.));
#614=CARTESIAN_POINT('',(67.0000000000002,0.,25.0000000000017));
#615=CARTESIAN_POINT('',(30.9999999999988,0.,0.));
#616=CARTESIAN_POINT('',(30.9999999999988,0.,-25.0000000000017));
#617=CARTESIAN_POINT('',(55030.,0.,0.));
#618=CARTESIAN_POINT('',(73.5,0.,0.));
#619=CARTESIAN_POINT('',(21.5,0.,0.));
#620=CARTESIAN_POINT('',(29.,0.,0.));
#621=CARTESIAN_POINT('',(66.,0.,0.));
#622=CARTESIAN_POINT('',(67.0000000000002,0.,0.));
#623=CARTESIAN_POINT('',(30.9999999999988,0.,0.));
#624=CARTESIAN_POINT('',(94.,0.,0.));
#625=CARTESIAN_POINT('',(1.99999999999999,0.,0.));
#626=CARTESIAN_POINT('',(98.,0.,0.));
#627=CARTESIAN_POINT('',(0.999999999999995,0.,0.));
#628=MECHANICAL_DESIGN_GEOMETRIC_PRESENTATION_REPRESENTATION('',(#94),#629);
#629=(
GEOMETRIC_REPRESENTATION_CONTEXT(3)
GLOBAL_UNCERTAINTY_ASSIGNED_CONTEXT((#630))
GLOBAL_UNIT_ASSIGNED_CONTEXT((#636,#632,#631))
REPRESENTATION_CONTEXT('DGNT50','TOP_LEVEL_ASSEMBLY_PART')
);
#630=UNCERTAINTY_MEASURE_WITH_UNIT(LENGTH_MEASURE(2.E-5),#636,
'DISTANCE_ACCURACY_VALUE','Maximum Tolerance applied to model');
#631=(
NAMED_UNIT(*)
SI_UNIT($,.STERADIAN.)
SOLID_ANGLE_UNIT()
);
#632=(
CONVERSION_BASED_UNIT('DEGREE',#634)
NAMED_UNIT(#633)
PLANE_ANGLE_UNIT()
);
#633=DIMENSIONAL_EXPONENTS(0.,0.,0.,0.,0.,0.,0.);
#634=PLANE_ANGLE_MEASURE_WITH_UNIT(PLANE_ANGLE_MEASURE(0.0174532925),#635);
#635=(
NAMED_UNIT(*)
PLANE_ANGLE_UNIT()
SI_UNIT($,.RADIAN.)
);
#636=(
LENGTH_UNIT()
NAMED_UNIT(*)
SI_UNIT(.MILLI.,.METRE.)
);
ENDSEC;
END-ISO-10303-21;
