ISO-10303-21;
HEADER;
/* Generated by software containing ST-Developer
 * from STEP Tools, Inc. (www.steptools.com) 
 */
/* OPTION: using custom schema-name function */

FILE_DESCRIPTION(
/* description */ (''),
/* implementation_level */ '2;1');

FILE_NAME(
/* name */ 'DGNT80.stp',
/* time_stamp */ '2025-03-13T07:46:32+01:00',
/* author */ (''),
/* organization */ (''),
/* preprocessor_version */ 'ST-DEVELOPER v16.7',
/* originating_system */ 'SIEMENS PLM Software NX 1863',
/* authorisation */ '');

FILE_SCHEMA (('AP203_CONFIGURATION_CONTROLLED_3D_DESIGN_OF_MECHANICAL_PARTS_AND_ASSEMBLIES_MIM_LF { 1 0 10303 403 2 1 2}'));
ENDSEC;

DATA;
#10=SHAPE_REPRESENTATION_RELATIONSHIP('None',
'relationship between DGNT80_step-None and DGNT80_step-None',#92,#11);
#11=ADVANCED_BREP_SHAPE_REPRESENTATION('DGNT80_step-None',(#102),#549);
#12=CC_DESIGN_APPROVAL(#24,(#82));
#13=CC_DESIGN_APPROVAL(#25,(#84));
#14=CC_DESIGN_APPROVAL(#26,(#31));
#15=APPROVAL_PERSON_ORGANIZATION(#69,#24,#18);
#16=APPROVAL_PERSON_ORGANIZATION(#70,#25,#19);
#17=APPROVAL_PERSON_ORGANIZATION(#71,#26,#20);
#18=APPROVAL_ROLE('approver');
#19=APPROVAL_ROLE('approver');
#20=APPROVAL_ROLE('approver');
#21=APPROVAL_DATE_TIME(#39,#24);
#22=APPROVAL_DATE_TIME(#40,#25);
#23=APPROVAL_DATE_TIME(#41,#26);
#24=APPROVAL(#27,' ');
#25=APPROVAL(#28,' ');
#26=APPROVAL(#29,' ');
#27=APPROVAL_STATUS('not_yet_approved');
#28=APPROVAL_STATUS('not_yet_approved');
#29=APPROVAL_STATUS('not_yet_approved');
#30=CC_DESIGN_SECURITY_CLASSIFICATION(#31,(#84));
#31=SECURITY_CLASSIFICATION(' ',' ',#32);
#32=SECURITY_CLASSIFICATION_LEVEL('confidential');
#33=CC_DESIGN_DATE_AND_TIME_ASSIGNMENT(#37,#35,(#82));
#34=CC_DESIGN_DATE_AND_TIME_ASSIGNMENT(#38,#36,(#31));
#35=DATE_TIME_ROLE('creation_date');
#36=DATE_TIME_ROLE('classification_date');
#37=DATE_AND_TIME(#52,#42);
#38=DATE_AND_TIME(#53,#43);
#39=DATE_AND_TIME(#54,#44);
#40=DATE_AND_TIME(#55,#45);
#41=DATE_AND_TIME(#56,#46);
#42=LOCAL_TIME(0,0,0.,#47);
#43=LOCAL_TIME(0,0,0.,#48);
#44=LOCAL_TIME(0,0,0.,#49);
#45=LOCAL_TIME(0,0,0.,#50);
#46=LOCAL_TIME(0,0,0.,#51);
#47=COORDINATED_UNIVERSAL_TIME_OFFSET(0,0,.BEHIND.);
#48=COORDINATED_UNIVERSAL_TIME_OFFSET(0,0,.BEHIND.);
#49=COORDINATED_UNIVERSAL_TIME_OFFSET(0,0,.BEHIND.);
#50=COORDINATED_UNIVERSAL_TIME_OFFSET(0,0,.BEHIND.);
#51=COORDINATED_UNIVERSAL_TIME_OFFSET(0,0,.BEHIND.);
#52=CALENDAR_DATE(0,1,1);
#53=CALENDAR_DATE(0,1,1);
#54=CALENDAR_DATE(0,1,1);
#55=CALENDAR_DATE(0,1,1);
#56=CALENDAR_DATE(0,1,1);
#57=CC_DESIGN_PERSON_AND_ORGANIZATION_ASSIGNMENT(#65,#61,(#82,#84));
#58=CC_DESIGN_PERSON_AND_ORGANIZATION_ASSIGNMENT(#66,#62,(#86));
#59=CC_DESIGN_PERSON_AND_ORGANIZATION_ASSIGNMENT(#67,#63,(#84));
#60=CC_DESIGN_PERSON_AND_ORGANIZATION_ASSIGNMENT(#68,#64,(#31));
#61=PERSON_AND_ORGANIZATION_ROLE('creator');
#62=PERSON_AND_ORGANIZATION_ROLE('design_owner');
#63=PERSON_AND_ORGANIZATION_ROLE('design_supplier');
#64=PERSON_AND_ORGANIZATION_ROLE('classification_officer');
#65=PERSON_AND_ORGANIZATION(#79,#72);
#66=PERSON_AND_ORGANIZATION(#79,#73);
#67=PERSON_AND_ORGANIZATION(#79,#74);
#68=PERSON_AND_ORGANIZATION(#79,#75);
#69=PERSON_AND_ORGANIZATION(#79,#76);
#70=PERSON_AND_ORGANIZATION(#79,#77);
#71=PERSON_AND_ORGANIZATION(#79,#78);
#72=ORGANIZATION(' ',' ',' ');
#73=ORGANIZATION(' ',' ',' ');
#74=ORGANIZATION(' ',' ',' ');
#75=ORGANIZATION(' ',' ',' ');
#76=ORGANIZATION(' ',' ',' ');
#77=ORGANIZATION(' ',' ',' ');
#78=ORGANIZATION(' ',' ',' ');
#79=PERSON(' ',' ',' ',(' '),$,$);
#80=SHAPE_DEFINITION_REPRESENTATION(#81,#92);
#81=PRODUCT_DEFINITION_SHAPE('','',#82);
#82=PRODUCT_DEFINITION(' ','',#84,#83);
#83=DESIGN_CONTEXT('',#91,'design');
#84=PRODUCT_DEFINITION_FORMATION_WITH_SPECIFIED_SOURCE(' ',' ',#86,
 .NOT_KNOWN.);
#85=PRODUCT_RELATED_PRODUCT_CATEGORY('detail','',(#86));
#86=PRODUCT('DGNT80_step','DGNT80_step',' ',(#89));
#87=PRODUCT_CATEGORY('part',' ');
#88=PRODUCT_CATEGORY(' ','');
#89=MECHANICAL_CONTEXT(' ',#91,'mechanical');
#90=APPLICATION_PROTOCOL_DEFINITION('international standard',
'config_control_design',2010,#91);
#91=APPLICATION_CONTEXT(
'configuration controlled 3D designs of mechanical parts and assemblie
s');
#92=SHAPE_REPRESENTATION('DGNT80_step-None',(#346),#549);
#93=PRESENTATION_LAYER_ASSIGNMENT('1','Layer 1',(#102));
#94=STYLED_ITEM('',(#95),#102);
#95=PRESENTATION_STYLE_ASSIGNMENT((#96));
#96=SURFACE_STYLE_USAGE(.BOTH.,#97);
#97=SURFACE_SIDE_STYLE('',(#98));
#98=SURFACE_STYLE_FILL_AREA(#99);
#99=FILL_AREA_STYLE('',(#100));
#100=FILL_AREA_STYLE_COLOUR('',#101);
#101=COLOUR_RGB('Medium Steel',0.596063172350652,0.666666666666667,0.686259250782025);
#102=MANIFOLD_SOLID_BREP('',#103);
#103=CLOSED_SHELL('',(#120,#121,#122,#123,#124,#125,#126,#127,#128,#129,
#130,#131,#132,#133,#134,#135,#136,#137,#138,#139,#140,#141));
#104=CONICAL_SURFACE('',#377,44.14,45.);
#105=CONICAL_SURFACE('',#383,44.14,45.);
#106=CONICAL_SURFACE('',#387,50.,45.);
#107=CONICAL_SURFACE('',#388,49.,45.);
#108=CONICAL_SURFACE('',#389,40.0000000000019,44.9999999998632);
#109=CONICAL_SURFACE('',#390,40.0000000000019,45.0000000000668);
#110=TOROIDAL_SURFACE('',#368,71.,5.);
#111=TOROIDAL_SURFACE('',#369,55.,5.);
#112=TOROIDAL_SURFACE('',#370,71.,5.);
#113=TOROIDAL_SURFACE('',#371,55.,5.);
#114=CYLINDRICAL_SURFACE('',#352,50.);
#115=CYLINDRICAL_SURFACE('',#358,76.);
#116=CYLINDRICAL_SURFACE('',#364,50.);
#117=CYLINDRICAL_SURFACE('',#376,42.463);
#118=CYLINDRICAL_SURFACE('',#382,42.463);
#119=CYLINDRICAL_SURFACE('',#386,40.0000000000019);
#120=ADVANCED_FACE('',(#148,#149),#142,.F.);
#121=ADVANCED_FACE('',(#150,#151),#114,.T.);
#122=ADVANCED_FACE('',(#152,#153),#143,.F.);
#123=ADVANCED_FACE('',(#154,#155),#115,.T.);
#124=ADVANCED_FACE('',(#156,#157),#144,.F.);
#125=ADVANCED_FACE('',(#158,#159),#116,.T.);
#126=ADVANCED_FACE('',(#160,#161),#145,.F.);
#127=ADVANCED_FACE('',(#162,#163),#110,.T.);
#128=ADVANCED_FACE('',(#164,#165),#111,.F.);
#129=ADVANCED_FACE('',(#166,#167),#112,.T.);
#130=ADVANCED_FACE('',(#168,#169),#113,.F.);
#131=ADVANCED_FACE('',(#170,#171),#146,.F.);
#132=ADVANCED_FACE('',(#172,#173),#117,.F.);
#133=ADVANCED_FACE('',(#174,#175),#104,.F.);
#134=ADVANCED_FACE('',(#176,#177),#147,.F.);
#135=ADVANCED_FACE('',(#178,#179),#118,.F.);
#136=ADVANCED_FACE('',(#180,#181),#105,.F.);
#137=ADVANCED_FACE('',(#182,#183),#119,.F.);
#138=ADVANCED_FACE('',(#184,#185),#106,.T.);
#139=ADVANCED_FACE('',(#186,#187),#107,.T.);
#140=ADVANCED_FACE('',(#188,#189),#108,.F.);
#141=ADVANCED_FACE('',(#190,#191),#109,.F.);
#142=PLANE('',#349);
#143=PLANE('',#355);
#144=PLANE('',#361);
#145=PLANE('',#367);
#146=PLANE('',#374);
#147=PLANE('',#380);
#148=FACE_BOUND('',#192,.T.);
#149=FACE_BOUND('',#193,.T.);
#150=FACE_BOUND('',#194,.T.);
#151=FACE_BOUND('',#195,.T.);
#152=FACE_BOUND('',#196,.T.);
#153=FACE_BOUND('',#197,.T.);
#154=FACE_BOUND('',#198,.T.);
#155=FACE_BOUND('',#199,.T.);
#156=FACE_BOUND('',#200,.T.);
#157=FACE_BOUND('',#201,.T.);
#158=FACE_BOUND('',#202,.T.);
#159=FACE_BOUND('',#203,.T.);
#160=FACE_BOUND('',#204,.T.);
#161=FACE_BOUND('',#205,.T.);
#162=FACE_BOUND('',#206,.T.);
#163=FACE_BOUND('',#207,.T.);
#164=FACE_BOUND('',#208,.T.);
#165=FACE_BOUND('',#209,.T.);
#166=FACE_BOUND('',#210,.T.);
#167=FACE_BOUND('',#211,.T.);
#168=FACE_BOUND('',#212,.T.);
#169=FACE_BOUND('',#213,.T.);
#170=FACE_BOUND('',#214,.T.);
#171=FACE_BOUND('',#215,.T.);
#172=FACE_BOUND('',#216,.T.);
#173=FACE_BOUND('',#217,.T.);
#174=FACE_BOUND('',#218,.T.);
#175=FACE_BOUND('',#219,.T.);
#176=FACE_BOUND('',#220,.T.);
#177=FACE_BOUND('',#221,.T.);
#178=FACE_BOUND('',#222,.T.);
#179=FACE_BOUND('',#223,.T.);
#180=FACE_BOUND('',#224,.T.);
#181=FACE_BOUND('',#225,.T.);
#182=FACE_BOUND('',#226,.T.);
#183=FACE_BOUND('',#227,.T.);
#184=FACE_BOUND('',#228,.T.);
#185=FACE_BOUND('',#229,.T.);
#186=FACE_BOUND('',#230,.T.);
#187=FACE_BOUND('',#231,.T.);
#188=FACE_BOUND('',#232,.T.);
#189=FACE_BOUND('',#233,.T.);
#190=FACE_BOUND('',#234,.T.);
#191=FACE_BOUND('',#235,.T.);
#192=EDGE_LOOP('',(#236));
#193=EDGE_LOOP('',(#237));
#194=EDGE_LOOP('',(#238));
#195=EDGE_LOOP('',(#239));
#196=EDGE_LOOP('',(#240));
#197=EDGE_LOOP('',(#241));
#198=EDGE_LOOP('',(#242));
#199=EDGE_LOOP('',(#243));
#200=EDGE_LOOP('',(#244));
#201=EDGE_LOOP('',(#245));
#202=EDGE_LOOP('',(#246));
#203=EDGE_LOOP('',(#247));
#204=EDGE_LOOP('',(#248));
#205=EDGE_LOOP('',(#249));
#206=EDGE_LOOP('',(#250));
#207=EDGE_LOOP('',(#251));
#208=EDGE_LOOP('',(#252));
#209=EDGE_LOOP('',(#253));
#210=EDGE_LOOP('',(#254));
#211=EDGE_LOOP('',(#255));
#212=EDGE_LOOP('',(#256));
#213=EDGE_LOOP('',(#257));
#214=EDGE_LOOP('',(#258));
#215=EDGE_LOOP('',(#259));
#216=EDGE_LOOP('',(#260));
#217=EDGE_LOOP('',(#261));
#218=EDGE_LOOP('',(#262));
#219=EDGE_LOOP('',(#263));
#220=EDGE_LOOP('',(#264));
#221=EDGE_LOOP('',(#265));
#222=EDGE_LOOP('',(#266));
#223=EDGE_LOOP('',(#267));
#224=EDGE_LOOP('',(#268));
#225=EDGE_LOOP('',(#269));
#226=EDGE_LOOP('',(#270));
#227=EDGE_LOOP('',(#271));
#228=EDGE_LOOP('',(#272));
#229=EDGE_LOOP('',(#273));
#230=EDGE_LOOP('',(#274));
#231=EDGE_LOOP('',(#275));
#232=EDGE_LOOP('',(#276));
#233=EDGE_LOOP('',(#277));
#234=EDGE_LOOP('',(#278));
#235=EDGE_LOOP('',(#279));
#236=ORIENTED_EDGE('',*,*,#302,.T.);
#237=ORIENTED_EDGE('',*,*,#303,.T.);
#238=ORIENTED_EDGE('',*,*,#304,.T.);
#239=ORIENTED_EDGE('',*,*,#305,.T.);
#240=ORIENTED_EDGE('',*,*,#306,.T.);
#241=ORIENTED_EDGE('',*,*,#307,.T.);
#242=ORIENTED_EDGE('',*,*,#308,.T.);
#243=ORIENTED_EDGE('',*,*,#309,.T.);
#244=ORIENTED_EDGE('',*,*,#310,.T.);
#245=ORIENTED_EDGE('',*,*,#311,.T.);
#246=ORIENTED_EDGE('',*,*,#312,.T.);
#247=ORIENTED_EDGE('',*,*,#313,.T.);
#248=ORIENTED_EDGE('',*,*,#314,.T.);
#249=ORIENTED_EDGE('',*,*,#315,.T.);
#250=ORIENTED_EDGE('',*,*,#308,.F.);
#251=ORIENTED_EDGE('',*,*,#306,.F.);
#252=ORIENTED_EDGE('',*,*,#307,.F.);
#253=ORIENTED_EDGE('',*,*,#305,.F.);
#254=ORIENTED_EDGE('',*,*,#310,.F.);
#255=ORIENTED_EDGE('',*,*,#309,.F.);
#256=ORIENTED_EDGE('',*,*,#313,.F.);
#257=ORIENTED_EDGE('',*,*,#311,.F.);
#258=ORIENTED_EDGE('',*,*,#316,.T.);
#259=ORIENTED_EDGE('',*,*,#317,.T.);
#260=ORIENTED_EDGE('',*,*,#318,.T.);
#261=ORIENTED_EDGE('',*,*,#317,.F.);
#262=ORIENTED_EDGE('',*,*,#318,.F.);
#263=ORIENTED_EDGE('',*,*,#315,.F.);
#264=ORIENTED_EDGE('',*,*,#319,.T.);
#265=ORIENTED_EDGE('',*,*,#320,.T.);
#266=ORIENTED_EDGE('',*,*,#321,.T.);
#267=ORIENTED_EDGE('',*,*,#320,.F.);
#268=ORIENTED_EDGE('',*,*,#321,.F.);
#269=ORIENTED_EDGE('',*,*,#303,.F.);
#270=ORIENTED_EDGE('',*,*,#322,.T.);
#271=ORIENTED_EDGE('',*,*,#323,.T.);
#272=ORIENTED_EDGE('',*,*,#314,.F.);
#273=ORIENTED_EDGE('',*,*,#312,.F.);
#274=ORIENTED_EDGE('',*,*,#304,.F.);
#275=ORIENTED_EDGE('',*,*,#302,.F.);
#276=ORIENTED_EDGE('',*,*,#316,.F.);
#277=ORIENTED_EDGE('',*,*,#322,.F.);
#278=ORIENTED_EDGE('',*,*,#319,.F.);
#279=ORIENTED_EDGE('',*,*,#323,.F.);
#280=VERTEX_POINT('',#483);
#281=VERTEX_POINT('',#485);
#282=VERTEX_POINT('',#488);
#283=VERTEX_POINT('',#490);
#284=VERTEX_POINT('',#493);
#285=VERTEX_POINT('',#495);
#286=VERTEX_POINT('',#498);
#287=VERTEX_POINT('',#500);
#288=VERTEX_POINT('',#503);
#289=VERTEX_POINT('',#505);
#290=VERTEX_POINT('',#508);
#291=VERTEX_POINT('',#510);
#292=VERTEX_POINT('',#513);
#293=VERTEX_POINT('',#515);
#294=VERTEX_POINT('',#522);
#295=VERTEX_POINT('',#524);
#296=VERTEX_POINT('',#527);
#297=VERTEX_POINT('',#531);
#298=VERTEX_POINT('',#533);
#299=VERTEX_POINT('',#536);
#300=VERTEX_POINT('',#540);
#301=VERTEX_POINT('',#542);
#302=EDGE_CURVE('',#280,#280,#324,.T.);
#303=EDGE_CURVE('',#281,#281,#325,.T.);
#304=EDGE_CURVE('',#282,#282,#326,.T.);
#305=EDGE_CURVE('',#283,#283,#327,.T.);
#306=EDGE_CURVE('',#284,#284,#328,.T.);
#307=EDGE_CURVE('',#285,#285,#329,.T.);
#308=EDGE_CURVE('',#286,#286,#330,.T.);
#309=EDGE_CURVE('',#287,#287,#331,.T.);
#310=EDGE_CURVE('',#288,#288,#332,.T.);
#311=EDGE_CURVE('',#289,#289,#333,.T.);
#312=EDGE_CURVE('',#290,#290,#334,.T.);
#313=EDGE_CURVE('',#291,#291,#335,.T.);
#314=EDGE_CURVE('',#292,#292,#336,.T.);
#315=EDGE_CURVE('',#293,#293,#337,.T.);
#316=EDGE_CURVE('',#294,#294,#338,.T.);
#317=EDGE_CURVE('',#295,#295,#339,.T.);
#318=EDGE_CURVE('',#296,#296,#340,.T.);
#319=EDGE_CURVE('',#297,#297,#341,.T.);
#320=EDGE_CURVE('',#298,#298,#342,.T.);
#321=EDGE_CURVE('',#299,#299,#343,.T.);
#322=EDGE_CURVE('',#300,#300,#344,.T.);
#323=EDGE_CURVE('',#301,#301,#345,.T.);
#324=CIRCLE('',#347,49.);
#325=CIRCLE('',#348,44.14);
#326=CIRCLE('',#350,50.);
#327=CIRCLE('',#351,50.);
#328=CIRCLE('',#353,71.);
#329=CIRCLE('',#354,55.);
#330=CIRCLE('',#356,76.);
#331=CIRCLE('',#357,76.);
#332=CIRCLE('',#359,71.);
#333=CIRCLE('',#360,55.);
#334=CIRCLE('',#362,50.);
#335=CIRCLE('',#363,50.);
#336=CIRCLE('',#365,49.);
#337=CIRCLE('',#366,44.14);
#338=CIRCLE('',#372,40.9999999999985);
#339=CIRCLE('',#373,42.463);
#340=CIRCLE('',#375,42.463);
#341=CIRCLE('',#378,41.0000000000042);
#342=CIRCLE('',#379,42.463);
#343=CIRCLE('',#381,42.463);
#344=CIRCLE('',#384,40.0000000000019);
#345=CIRCLE('',#385,40.0000000000019);
#346=AXIS2_PLACEMENT_3D('',#481,#391,#392);
#347=AXIS2_PLACEMENT_3D('',#482,#393,#394);
#348=AXIS2_PLACEMENT_3D('',#484,#395,#396);
#349=AXIS2_PLACEMENT_3D('',#486,#397,#398);
#350=AXIS2_PLACEMENT_3D('',#487,#399,#400);
#351=AXIS2_PLACEMENT_3D('',#489,#401,#402);
#352=AXIS2_PLACEMENT_3D('',#491,#403,#404);
#353=AXIS2_PLACEMENT_3D('',#492,#405,#406);
#354=AXIS2_PLACEMENT_3D('',#494,#407,#408);
#355=AXIS2_PLACEMENT_3D('',#496,#409,#410);
#356=AXIS2_PLACEMENT_3D('',#497,#411,#412);
#357=AXIS2_PLACEMENT_3D('',#499,#413,#414);
#358=AXIS2_PLACEMENT_3D('',#501,#415,#416);
#359=AXIS2_PLACEMENT_3D('',#502,#417,#418);
#360=AXIS2_PLACEMENT_3D('',#504,#419,#420);
#361=AXIS2_PLACEMENT_3D('',#506,#421,#422);
#362=AXIS2_PLACEMENT_3D('',#507,#423,#424);
#363=AXIS2_PLACEMENT_3D('',#509,#425,#426);
#364=AXIS2_PLACEMENT_3D('',#511,#427,#428);
#365=AXIS2_PLACEMENT_3D('',#512,#429,#430);
#366=AXIS2_PLACEMENT_3D('',#514,#431,#432);
#367=AXIS2_PLACEMENT_3D('',#516,#433,#434);
#368=AXIS2_PLACEMENT_3D('',#517,#435,#436);
#369=AXIS2_PLACEMENT_3D('',#518,#437,#438);
#370=AXIS2_PLACEMENT_3D('',#519,#439,#440);
#371=AXIS2_PLACEMENT_3D('',#520,#441,#442);
#372=AXIS2_PLACEMENT_3D('',#521,#443,#444);
#373=AXIS2_PLACEMENT_3D('',#523,#445,#446);
#374=AXIS2_PLACEMENT_3D('',#525,#447,#448);
#375=AXIS2_PLACEMENT_3D('',#526,#449,#450);
#376=AXIS2_PLACEMENT_3D('',#528,#451,#452);
#377=AXIS2_PLACEMENT_3D('',#529,#453,#454);
#378=AXIS2_PLACEMENT_3D('',#530,#455,#456);
#379=AXIS2_PLACEMENT_3D('',#532,#457,#458);
#380=AXIS2_PLACEMENT_3D('',#534,#459,#460);
#381=AXIS2_PLACEMENT_3D('',#535,#461,#462);
#382=AXIS2_PLACEMENT_3D('',#537,#463,#464);
#383=AXIS2_PLACEMENT_3D('',#538,#465,#466);
#384=AXIS2_PLACEMENT_3D('',#539,#467,#468);
#385=AXIS2_PLACEMENT_3D('',#541,#469,#470);
#386=AXIS2_PLACEMENT_3D('',#543,#471,#472);
#387=AXIS2_PLACEMENT_3D('',#544,#473,#474);
#388=AXIS2_PLACEMENT_3D('',#545,#475,#476);
#389=AXIS2_PLACEMENT_3D('',#546,#477,#478);
#390=AXIS2_PLACEMENT_3D('',#547,#479,#480);
#391=DIRECTION('',(0.,0.,1.));
#392=DIRECTION('',(1.,0.,0.));
#393=DIRECTION('',(1.,0.,0.));
#394=DIRECTION('',(0.,0.,1.));
#395=DIRECTION('',(-1.,0.,0.));
#396=DIRECTION('',(0.,0.,1.));
#397=DIRECTION('',(-1.,0.,0.));
#398=DIRECTION('',(0.,0.,1.));
#399=DIRECTION('',(-1.,0.,0.));
#400=DIRECTION('',(0.,0.,1.));
#401=DIRECTION('',(1.,0.,0.));
#402=DIRECTION('',(0.,0.,1.));
#403=DIRECTION('',(1.,0.,0.));
#404=DIRECTION('',(0.,0.,-1.));
#405=DIRECTION('',(1.,0.,0.));
#406=DIRECTION('',(0.,0.,1.));
#407=DIRECTION('',(-1.,0.,0.));
#408=DIRECTION('',(0.,0.,1.));
#409=DIRECTION('',(-1.,0.,0.));
#410=DIRECTION('',(0.,0.,1.));
#411=DIRECTION('',(-1.,0.,0.));
#412=DIRECTION('',(0.,0.,1.));
#413=DIRECTION('',(1.,0.,0.));
#414=DIRECTION('',(0.,0.,-1.));
#415=DIRECTION('',(1.,0.,0.));
#416=DIRECTION('',(0.,0.,-1.));
#417=DIRECTION('',(-1.,0.,0.));
#418=DIRECTION('',(0.,0.,-1.));
#419=DIRECTION('',(1.,0.,0.));
#420=DIRECTION('',(0.,0.,-1.));
#421=DIRECTION('',(1.,0.,0.));
#422=DIRECTION('',(0.,0.,-1.));
#423=DIRECTION('',(1.,0.,0.));
#424=DIRECTION('',(0.,0.,-1.));
#425=DIRECTION('',(-1.,0.,0.));
#426=DIRECTION('',(0.,0.,-1.));
#427=DIRECTION('',(1.,0.,0.));
#428=DIRECTION('',(0.,0.,-1.));
#429=DIRECTION('',(-1.,0.,0.));
#430=DIRECTION('',(0.,0.,-1.));
#431=DIRECTION('',(1.,0.,0.));
#432=DIRECTION('',(0.,0.,-1.));
#433=DIRECTION('',(1.,0.,0.));
#434=DIRECTION('',(0.,0.,-1.));
#435=DIRECTION('',(-1.,0.,0.));
#436=DIRECTION('',(0.,0.,1.));
#437=DIRECTION('',(-1.,0.,0.));
#438=DIRECTION('',(0.,0.,1.));
#439=DIRECTION('',(1.,0.,0.));
#440=DIRECTION('',(0.,0.,-1.));
#441=DIRECTION('',(1.,0.,0.));
#442=DIRECTION('',(0.,0.,-1.));
#443=DIRECTION('',(1.,0.,0.));
#444=DIRECTION('',(0.,0.,-1.));
#445=DIRECTION('',(-1.,0.,0.));
#446=DIRECTION('',(0.,0.,-1.));
#447=DIRECTION('',(1.,0.,0.));
#448=DIRECTION('',(0.,0.,-1.));
#449=DIRECTION('',(-1.,0.,0.));
#450=DIRECTION('',(0.,0.,-1.));
#451=DIRECTION('',(1.,0.,0.));
#452=DIRECTION('',(0.,0.,-1.));
#453=DIRECTION('',(-1.,0.,0.));
#454=DIRECTION('',(-2.04151570410127E-17,0.,1.));
#455=DIRECTION('',(-1.,0.,0.));
#456=DIRECTION('',(0.,0.,1.));
#457=DIRECTION('',(1.,0.,0.));
#458=DIRECTION('',(0.,0.,1.));
#459=DIRECTION('',(-1.,0.,0.));
#460=DIRECTION('',(0.,0.,1.));
#461=DIRECTION('',(1.,0.,0.));
#462=DIRECTION('',(0.,0.,1.));
#463=DIRECTION('',(-1.,0.,0.));
#464=DIRECTION('',(0.,0.,1.));
#465=DIRECTION('',(1.,0.,0.));
#466=DIRECTION('',(-7.97467071914559E-17,0.,-1.));
#467=DIRECTION('',(-1.,0.,0.));
#468=DIRECTION('',(0.,0.,-1.));
#469=DIRECTION('',(1.,0.,0.));
#470=DIRECTION('',(0.,0.,1.));
#471=DIRECTION('',(1.,0.,0.));
#472=DIRECTION('',(0.,0.,-1.));
#473=DIRECTION('',(1.,0.,0.));
#474=DIRECTION('',(8.63231443997982E-17,0.,-1.));
#475=DIRECTION('',(-1.,0.,0.));
#476=DIRECTION('',(2.64590806631353E-17,0.,1.));
#477=DIRECTION('',(-1.,0.,0.));
#478=DIRECTION('',(0.,0.,1.));
#479=DIRECTION('',(1.,0.,0.));
#480=DIRECTION('',(0.,0.,-1.));
#481=CARTESIAN_POINT('',(0.,0.,0.));
#482=CARTESIAN_POINT('',(100.,0.,0.));
#483=CARTESIAN_POINT('',(100.,0.,49.));
#484=CARTESIAN_POINT('',(100.,0.,0.));
#485=CARTESIAN_POINT('',(100.,0.,44.14));
#486=CARTESIAN_POINT('',(100.,50.,0.));
#487=CARTESIAN_POINT('',(99.0000000000001,0.,0.));
#488=CARTESIAN_POINT('',(99.0000000000001,0.,50.));
#489=CARTESIAN_POINT('',(90.0000000000001,0.,0.));
#490=CARTESIAN_POINT('',(90.0000000000001,0.,50.));
#491=CARTESIAN_POINT('',(3.90798504668055E-14,0.,0.));
#492=CARTESIAN_POINT('',(85.0000000000001,0.,0.));
#493=CARTESIAN_POINT('',(85.0000000000001,0.,71.));
#494=CARTESIAN_POINT('',(85.0000000000001,0.,0.));
#495=CARTESIAN_POINT('',(85.0000000000001,0.,55.));
#496=CARTESIAN_POINT('',(85.0000000000001,76.,0.));
#497=CARTESIAN_POINT('',(80.0000000000001,0.,0.));
#498=CARTESIAN_POINT('',(80.0000000000001,0.,76.));
#499=CARTESIAN_POINT('',(40.,0.,0.));
#500=CARTESIAN_POINT('',(40.,0.,-76.));
#501=CARTESIAN_POINT('',(3.90798504668055E-14,0.,0.));
#502=CARTESIAN_POINT('',(35.,0.,0.));
#503=CARTESIAN_POINT('',(35.,0.,-71.));
#504=CARTESIAN_POINT('',(35.,0.,0.));
#505=CARTESIAN_POINT('',(35.,0.,-55.));
#506=CARTESIAN_POINT('',(35.,50.,0.));
#507=CARTESIAN_POINT('',(1.00000000000002,0.,0.));
#508=CARTESIAN_POINT('',(1.00000000000002,0.,-50.));
#509=CARTESIAN_POINT('',(30.,0.,0.));
#510=CARTESIAN_POINT('',(30.,0.,-50.));
#511=CARTESIAN_POINT('',(3.90798504668055E-14,0.,0.));
#512=CARTESIAN_POINT('',(2.1316282072803E-14,0.,0.));
#513=CARTESIAN_POINT('',(2.1316282072803E-14,0.,-49.));
#514=CARTESIAN_POINT('',(2.1316282072803E-14,0.,0.));
#515=CARTESIAN_POINT('',(2.1316282072803E-14,0.,-44.14));
#516=CARTESIAN_POINT('',(2.1316282072803E-14,0.,0.));
#517=CARTESIAN_POINT('',(80.0000000000001,0.,0.));
#518=CARTESIAN_POINT('',(90.0000000000001,0.,0.));
#519=CARTESIAN_POINT('',(40.,0.,0.));
#520=CARTESIAN_POINT('',(30.,0.,0.));
#521=CARTESIAN_POINT('',(35.,0.,0.));
#522=CARTESIAN_POINT('',(35.,0.,-40.9999999999985));
#523=CARTESIAN_POINT('',(35.,0.,0.));
#524=CARTESIAN_POINT('',(35.,0.,-42.463));
#525=CARTESIAN_POINT('',(35.,0.,0.));
#526=CARTESIAN_POINT('',(1.67700000000002,0.,0.));
#527=CARTESIAN_POINT('',(1.67700000000002,0.,-42.463));
#528=CARTESIAN_POINT('',(3.5527136788005E-15,0.,0.));
#529=CARTESIAN_POINT('',(2.1316282072803E-14,0.,0.));
#530=CARTESIAN_POINT('',(65.,0.,0.));
#531=CARTESIAN_POINT('',(65.,0.,41.0000000000042));
#532=CARTESIAN_POINT('',(65.,0.,0.));
#533=CARTESIAN_POINT('',(65.,0.,42.463));
#534=CARTESIAN_POINT('',(65.,0.,0.));
#535=CARTESIAN_POINT('',(98.3230000000001,0.,0.));
#536=CARTESIAN_POINT('',(98.3230000000001,0.,42.463));
#537=CARTESIAN_POINT('',(100.,0.,0.));
#538=CARTESIAN_POINT('',(100.,0.,0.));
#539=CARTESIAN_POINT('',(36.0000000000014,0.,0.));
#540=CARTESIAN_POINT('',(36.0000000000014,0.,-40.0000000000019));
#541=CARTESIAN_POINT('',(64.0000000000001,0.,0.));
#542=CARTESIAN_POINT('',(64.0000000000001,0.,40.0000000000019));
#543=CARTESIAN_POINT('',(-54935.,0.,0.));
#544=CARTESIAN_POINT('',(1.00000000000002,0.,0.));
#545=CARTESIAN_POINT('',(100.,0.,0.));
#546=CARTESIAN_POINT('',(36.0000000000014,0.,0.));
#547=CARTESIAN_POINT('',(64.0000000000001,0.,0.));
#548=MECHANICAL_DESIGN_GEOMETRIC_PRESENTATION_REPRESENTATION('',(#94),#549);
#549=(
GEOMETRIC_REPRESENTATION_CONTEXT(3)
GLOBAL_UNCERTAINTY_ASSIGNED_CONTEXT((#550))
GLOBAL_UNIT_ASSIGNED_CONTEXT((#556,#552,#551))
REPRESENTATION_CONTEXT('DGNT80','TOP_LEVEL_ASSEMBLY_PART')
);
#550=UNCERTAINTY_MEASURE_WITH_UNIT(LENGTH_MEASURE(2.E-5),#556,
'DISTANCE_ACCURACY_VALUE','Maximum Tolerance applied to model');
#551=(
NAMED_UNIT(*)
SI_UNIT($,.STERADIAN.)
SOLID_ANGLE_UNIT()
);
#552=(
CONVERSION_BASED_UNIT('DEGREE',#554)
NAMED_UNIT(#553)
PLANE_ANGLE_UNIT()
);
#553=DIMENSIONAL_EXPONENTS(0.,0.,0.,0.,0.,0.,0.);
#554=PLANE_ANGLE_MEASURE_WITH_UNIT(PLANE_ANGLE_MEASURE(0.0174532925),#555);
#555=(
NAMED_UNIT(*)
PLANE_ANGLE_UNIT()
SI_UNIT($,.RADIAN.)
);
#556=(
LENGTH_UNIT()
NAMED_UNIT(*)
SI_UNIT(.MILLI.,.METRE.)
);
ENDSEC;
END-ISO-10303-21;
