ISO-10303-21;
HEADER;
/* Generated by software containing ST-Developer
 * from STEP Tools, Inc. (www.steptools.com) 
 */
/* OPTION: using custom renumber hook */

FILE_DESCRIPTION(
/* description */ ('STEP AP203'),
/* implementation_level */ '2;1');

FILE_NAME(
/* name */ 'Swivel Joint DVL 12',
/* time_stamp */ '2023-10-09T14:48:13+02:00',
/* author */ ('License CC BY-ND 4.0'),
/* organization */ ('CADENAS'),
/* preprocessor_version */ 'ST-DEVELOPER v19.3',
/* originating_system */ 'PARTsolutions',
/* authorisation */ '  ');

FILE_SCHEMA (('CONFIG_CONTROL_DESIGN'));
ENDSEC;

DATA;
#10=PROPERTY_DEFINITION_REPRESENTATION(#14,#12);
#11=PROPERTY_DEFINITION_REPRESENTATION(#15,#13);
#12=REPRESENTATION('',(#16),#569);
#13=REPRESENTATION('',(#17),#569);
#14=PROPERTY_DEFINITION('pmi validation property','',#574);
#15=PROPERTY_DEFINITION('pmi validation property','',#574);
#16=VALUE_REPRESENTATION_ITEM('number of annotations',COUNT_MEASURE(0.));
#17=VALUE_REPRESENTATION_ITEM('number of views',COUNT_MEASURE(0.));
#18=SHAPE_REPRESENTATION_RELATIONSHIP('','',#335,#19);
#19=ADVANCED_BREP_SHAPE_REPRESENTATION('',(#333),#569);
#20=CONICAL_SURFACE('',#345,27.5,0.785398163397448);
#21=CONICAL_SURFACE('',#350,28.,0.785398163397447);
#22=CONICAL_SURFACE('',#354,12.,0.505581054874205);
#23=PLANE('',#343);
#24=PLANE('',#352);
#25=PLANE('',#360);
#26=PLANE('',#362);
#27=PLANE('',#363);
#28=PLANE('',#364);
#29=PLANE('',#365);
#30=PLANE('',#366);
#31=PLANE('',#372);
#32=PLANE('',#375);
#33=PLANE('',#376);
#34=PLANE('',#377);
#35=PLANE('',#378);
#36=LINE('',#485,#52);
#37=LINE('',#490,#53);
#38=LINE('',#494,#54);
#39=LINE('',#498,#55);
#40=LINE('',#504,#56);
#41=LINE('',#505,#57);
#42=LINE('',#522,#58);
#43=LINE('',#527,#59);
#44=LINE('',#531,#60);
#45=LINE('',#535,#61);
#46=LINE('',#541,#62);
#47=LINE('',#542,#63);
#48=LINE('',#544,#64);
#49=LINE('',#547,#65);
#50=LINE('',#563,#66);
#51=LINE('',#566,#67);
#52=VECTOR('',#385,1000.);
#53=VECTOR('',#388,1000.);
#54=VECTOR('',#391,1000.);
#55=VECTOR('',#394,1000.);
#56=VECTOR('',#401,1000.);
#57=VECTOR('',#402,1000.);
#58=VECTOR('',#425,1000.);
#59=VECTOR('',#428,1000.);
#60=VECTOR('',#431,1000.);
#61=VECTOR('',#434,1000.);
#62=VECTOR('',#441,1000.);
#63=VECTOR('',#442,1000.);
#64=VECTOR('',#445,1000.);
#65=VECTOR('',#450,1000.);
#66=VECTOR('',#473,1000.);
#67=VECTOR('',#478,1000.);
#68=ORIENTED_EDGE('',*,*,#140,.T.);
#69=ORIENTED_EDGE('',*,*,#141,.F.);
#70=ORIENTED_EDGE('',*,*,#142,.F.);
#71=ORIENTED_EDGE('',*,*,#143,.F.);
#72=ORIENTED_EDGE('',*,*,#144,.F.);
#73=ORIENTED_EDGE('',*,*,#145,.F.);
#74=ORIENTED_EDGE('',*,*,#146,.F.);
#75=ORIENTED_EDGE('',*,*,#147,.F.);
#76=ORIENTED_EDGE('',*,*,#148,.F.);
#77=ORIENTED_EDGE('',*,*,#149,.T.);
#78=ORIENTED_EDGE('',*,*,#146,.T.);
#79=ORIENTED_EDGE('',*,*,#150,.T.);
#80=ORIENTED_EDGE('',*,*,#142,.T.);
#81=ORIENTED_EDGE('',*,*,#151,.T.);
#82=ORIENTED_EDGE('',*,*,#152,.F.);
#83=ORIENTED_EDGE('',*,*,#153,.T.);
#84=ORIENTED_EDGE('',*,*,#154,.F.);
#85=ORIENTED_EDGE('',*,*,#152,.T.);
#86=ORIENTED_EDGE('',*,*,#155,.F.);
#87=ORIENTED_EDGE('',*,*,#154,.T.);
#88=ORIENTED_EDGE('',*,*,#156,.T.);
#89=ORIENTED_EDGE('',*,*,#155,.T.);
#90=ORIENTED_EDGE('',*,*,#153,.F.);
#91=ORIENTED_EDGE('',*,*,#140,.F.);
#92=ORIENTED_EDGE('',*,*,#157,.F.);
#93=ORIENTED_EDGE('',*,*,#158,.F.);
#94=ORIENTED_EDGE('',*,*,#159,.F.);
#95=ORIENTED_EDGE('',*,*,#160,.T.);
#96=ORIENTED_EDGE('',*,*,#161,.F.);
#97=ORIENTED_EDGE('',*,*,#162,.F.);
#98=ORIENTED_EDGE('',*,*,#163,.F.);
#99=ORIENTED_EDGE('',*,*,#164,.T.);
#100=ORIENTED_EDGE('',*,*,#156,.F.);
#101=ORIENTED_EDGE('',*,*,#165,.F.);
#102=ORIENTED_EDGE('',*,*,#164,.F.);
#103=ORIENTED_EDGE('',*,*,#166,.T.);
#104=ORIENTED_EDGE('',*,*,#160,.F.);
#105=ORIENTED_EDGE('',*,*,#167,.T.);
#106=ORIENTED_EDGE('',*,*,#157,.T.);
#107=ORIENTED_EDGE('',*,*,#167,.F.);
#108=ORIENTED_EDGE('',*,*,#159,.T.);
#109=ORIENTED_EDGE('',*,*,#168,.F.);
#110=ORIENTED_EDGE('',*,*,#158,.T.);
#111=ORIENTED_EDGE('',*,*,#168,.T.);
#112=ORIENTED_EDGE('',*,*,#161,.T.);
#113=ORIENTED_EDGE('',*,*,#166,.F.);
#114=ORIENTED_EDGE('',*,*,#163,.T.);
#115=ORIENTED_EDGE('',*,*,#169,.F.);
#116=ORIENTED_EDGE('',*,*,#162,.T.);
#117=ORIENTED_EDGE('',*,*,#169,.T.);
#118=ORIENTED_EDGE('',*,*,#170,.T.);
#119=ORIENTED_EDGE('',*,*,#171,.T.);
#120=ORIENTED_EDGE('',*,*,#165,.T.);
#121=ORIENTED_EDGE('',*,*,#170,.F.);
#122=ORIENTED_EDGE('',*,*,#172,.T.);
#123=ORIENTED_EDGE('',*,*,#149,.F.);
#124=ORIENTED_EDGE('',*,*,#173,.T.);
#125=ORIENTED_EDGE('',*,*,#172,.F.);
#126=ORIENTED_EDGE('',*,*,#171,.F.);
#127=ORIENTED_EDGE('',*,*,#173,.F.);
#128=ORIENTED_EDGE('',*,*,#141,.T.);
#129=ORIENTED_EDGE('',*,*,#174,.T.);
#130=ORIENTED_EDGE('',*,*,#147,.T.);
#131=ORIENTED_EDGE('',*,*,#151,.F.);
#132=ORIENTED_EDGE('',*,*,#148,.T.);
#133=ORIENTED_EDGE('',*,*,#174,.F.);
#134=ORIENTED_EDGE('',*,*,#144,.T.);
#135=ORIENTED_EDGE('',*,*,#175,.F.);
#136=ORIENTED_EDGE('',*,*,#145,.T.);
#137=ORIENTED_EDGE('',*,*,#175,.T.);
#138=ORIENTED_EDGE('',*,*,#143,.T.);
#139=ORIENTED_EDGE('',*,*,#150,.F.);
#140=EDGE_CURVE('',#176,#176,#204,.T.);
#141=EDGE_CURVE('',#177,#178,#36,.T.);
#142=EDGE_CURVE('',#179,#177,#205,.T.);
#143=EDGE_CURVE('',#180,#179,#37,.F.);
#144=EDGE_CURVE('',#181,#180,#206,.T.);
#145=EDGE_CURVE('',#182,#181,#38,.T.);
#146=EDGE_CURVE('',#183,#182,#207,.T.);
#147=EDGE_CURVE('',#184,#183,#39,.F.);
#148=EDGE_CURVE('',#178,#184,#208,.T.);
#149=EDGE_CURVE('',#185,#185,#209,.T.);
#150=EDGE_CURVE('',#182,#179,#40,.T.);
#151=EDGE_CURVE('',#177,#183,#41,.T.);
#152=EDGE_CURVE('',#186,#186,#210,.T.);
#153=EDGE_CURVE('',#187,#187,#211,.T.);
#154=EDGE_CURVE('',#188,#188,#212,.T.);
#155=EDGE_CURVE('',#189,#189,#213,.T.);
#156=EDGE_CURVE('',#190,#190,#214,.T.);
#157=EDGE_CURVE('',#191,#192,#42,.F.);
#158=EDGE_CURVE('',#193,#191,#215,.F.);
#159=EDGE_CURVE('',#194,#193,#43,.T.);
#160=EDGE_CURVE('',#194,#195,#216,.T.);
#161=EDGE_CURVE('',#196,#195,#44,.F.);
#162=EDGE_CURVE('',#197,#196,#217,.F.);
#163=EDGE_CURVE('',#198,#197,#45,.T.);
#164=EDGE_CURVE('',#198,#192,#218,.T.);
#165=EDGE_CURVE('',#199,#199,#219,.T.);
#166=EDGE_CURVE('',#198,#195,#46,.T.);
#167=EDGE_CURVE('',#194,#192,#47,.T.);
#168=EDGE_CURVE('',#191,#193,#48,.T.);
#169=EDGE_CURVE('',#196,#197,#49,.T.);
#170=EDGE_CURVE('',#200,#200,#220,.T.);
#171=EDGE_CURVE('',#201,#201,#221,.F.);
#172=EDGE_CURVE('',#202,#202,#222,.T.);
#173=EDGE_CURVE('',#203,#203,#223,.F.);
#174=EDGE_CURVE('',#178,#184,#50,.T.);
#175=EDGE_CURVE('',#181,#180,#51,.T.);
#176=VERTEX_POINT('',#484);
#177=VERTEX_POINT('',#486);
#178=VERTEX_POINT('',#487);
#179=VERTEX_POINT('',#489);
#180=VERTEX_POINT('',#491);
#181=VERTEX_POINT('',#493);
#182=VERTEX_POINT('',#495);
#183=VERTEX_POINT('',#497);
#184=VERTEX_POINT('',#499);
#185=VERTEX_POINT('',#503);
#186=VERTEX_POINT('',#508);
#187=VERTEX_POINT('',#510);
#188=VERTEX_POINT('',#513);
#189=VERTEX_POINT('',#516);
#190=VERTEX_POINT('',#519);
#191=VERTEX_POINT('',#523);
#192=VERTEX_POINT('',#524);
#193=VERTEX_POINT('',#526);
#194=VERTEX_POINT('',#528);
#195=VERTEX_POINT('',#530);
#196=VERTEX_POINT('',#532);
#197=VERTEX_POINT('',#534);
#198=VERTEX_POINT('',#536);
#199=VERTEX_POINT('',#540);
#200=VERTEX_POINT('',#551);
#201=VERTEX_POINT('',#553);
#202=VERTEX_POINT('',#557);
#203=VERTEX_POINT('',#560);
#204=CIRCLE('',#338,12.);
#205=CIRCLE('',#339,12.);
#206=CIRCLE('',#340,12.);
#207=CIRCLE('',#341,12.);
#208=CIRCLE('',#342,12.);
#209=CIRCLE('',#344,7.475);
#210=CIRCLE('',#346,28.);
#211=CIRCLE('',#347,27.5);
#212=CIRCLE('',#349,28.);
#213=CIRCLE('',#351,27.5);
#214=CIRCLE('',#353,12.);
#215=CIRCLE('',#356,12.);
#216=CIRCLE('',#357,12.);
#217=CIRCLE('',#358,12.);
#218=CIRCLE('',#359,12.);
#219=CIRCLE('',#361,7.475);
#220=CIRCLE('',#367,7.475);
#221=CIRCLE('',#368,4.);
#222=CIRCLE('',#371,7.475);
#223=CIRCLE('',#373,4.);
#224=EDGE_LOOP('',(#68));
#225=EDGE_LOOP('',(#69,#70,#71,#72,#73,#74,#75,#76));
#226=EDGE_LOOP('',(#77));
#227=EDGE_LOOP('',(#78,#79,#80,#81));
#228=EDGE_LOOP('',(#82));
#229=EDGE_LOOP('',(#83));
#230=EDGE_LOOP('',(#84));
#231=EDGE_LOOP('',(#85));
#232=EDGE_LOOP('',(#86));
#233=EDGE_LOOP('',(#87));
#234=EDGE_LOOP('',(#88));
#235=EDGE_LOOP('',(#89));
#236=EDGE_LOOP('',(#90));
#237=EDGE_LOOP('',(#91));
#238=EDGE_LOOP('',(#92,#93,#94,#95,#96,#97,#98,#99));
#239=EDGE_LOOP('',(#100));
#240=EDGE_LOOP('',(#101));
#241=EDGE_LOOP('',(#102,#103,#104,#105));
#242=EDGE_LOOP('',(#106,#107,#108,#109));
#243=EDGE_LOOP('',(#110,#111));
#244=EDGE_LOOP('',(#112,#113,#114,#115));
#245=EDGE_LOOP('',(#116,#117));
#246=EDGE_LOOP('',(#118));
#247=EDGE_LOOP('',(#119));
#248=EDGE_LOOP('',(#120));
#249=EDGE_LOOP('',(#121));
#250=EDGE_LOOP('',(#122));
#251=EDGE_LOOP('',(#123));
#252=EDGE_LOOP('',(#124));
#253=EDGE_LOOP('',(#125));
#254=EDGE_LOOP('',(#126));
#255=EDGE_LOOP('',(#127));
#256=EDGE_LOOP('',(#128,#129,#130,#131));
#257=EDGE_LOOP('',(#132,#133));
#258=EDGE_LOOP('',(#134,#135));
#259=EDGE_LOOP('',(#136,#137,#138,#139));
#260=FACE_BOUND('',#224,.T.);
#261=FACE_BOUND('',#225,.T.);
#262=FACE_BOUND('',#226,.T.);
#263=FACE_BOUND('',#227,.T.);
#264=FACE_BOUND('',#228,.T.);
#265=FACE_BOUND('',#229,.T.);
#266=FACE_BOUND('',#230,.T.);
#267=FACE_BOUND('',#231,.T.);
#268=FACE_BOUND('',#232,.T.);
#269=FACE_BOUND('',#233,.T.);
#270=FACE_BOUND('',#234,.T.);
#271=FACE_BOUND('',#235,.T.);
#272=FACE_BOUND('',#236,.T.);
#273=FACE_BOUND('',#237,.T.);
#274=FACE_BOUND('',#238,.T.);
#275=FACE_BOUND('',#239,.T.);
#276=FACE_BOUND('',#240,.T.);
#277=FACE_BOUND('',#241,.T.);
#278=FACE_BOUND('',#242,.T.);
#279=FACE_BOUND('',#243,.T.);
#280=FACE_BOUND('',#244,.T.);
#281=FACE_BOUND('',#245,.T.);
#282=FACE_BOUND('',#246,.T.);
#283=FACE_BOUND('',#247,.T.);
#284=FACE_BOUND('',#248,.T.);
#285=FACE_BOUND('',#249,.T.);
#286=FACE_BOUND('',#250,.T.);
#287=FACE_BOUND('',#251,.T.);
#288=FACE_BOUND('',#252,.T.);
#289=FACE_BOUND('',#253,.T.);
#290=FACE_BOUND('',#254,.T.);
#291=FACE_BOUND('',#255,.T.);
#292=FACE_BOUND('',#256,.T.);
#293=FACE_BOUND('',#257,.T.);
#294=FACE_BOUND('',#258,.T.);
#295=FACE_BOUND('',#259,.T.);
#296=CYLINDRICAL_SURFACE('',#337,12.);
#297=CYLINDRICAL_SURFACE('',#348,28.);
#298=CYLINDRICAL_SURFACE('',#355,12.);
#299=CYLINDRICAL_SURFACE('',#369,7.475);
#300=CYLINDRICAL_SURFACE('',#370,7.475);
#301=CYLINDRICAL_SURFACE('',#374,4.);
#302=ADVANCED_FACE('',(#260,#261),#296,.T.);
#303=ADVANCED_FACE('',(#262,#263),#23,.T.);
#304=ADVANCED_FACE('',(#264,#265),#20,.T.);
#305=ADVANCED_FACE('',(#266,#267),#297,.T.);
#306=ADVANCED_FACE('',(#268,#269),#21,.T.);
#307=ADVANCED_FACE('',(#270,#271),#24,.F.);
#308=ADVANCED_FACE('',(#272,#273),#22,.T.);
#309=ADVANCED_FACE('',(#274,#275),#298,.T.);
#310=ADVANCED_FACE('',(#276,#277),#25,.F.);
#311=ADVANCED_FACE('',(#278),#26,.F.);
#312=ADVANCED_FACE('',(#279),#27,.F.);
#313=ADVANCED_FACE('',(#280),#28,.F.);
#314=ADVANCED_FACE('',(#281),#29,.F.);
#315=ADVANCED_FACE('',(#282,#283),#30,.T.);
#316=ADVANCED_FACE('',(#284,#285),#299,.F.);
#317=ADVANCED_FACE('',(#286,#287),#300,.F.);
#318=ADVANCED_FACE('',(#288,#289),#31,.T.);
#319=ADVANCED_FACE('',(#290,#291),#301,.F.);
#320=ADVANCED_FACE('',(#292),#32,.T.);
#321=ADVANCED_FACE('',(#293),#33,.T.);
#322=ADVANCED_FACE('',(#294),#34,.T.);
#323=ADVANCED_FACE('',(#295),#35,.T.);
#324=CLOSED_SHELL('',(#302,#303,#304,#305,#306,#307,#308,#309,#310,#311,
#312,#313,#314,#315,#316,#317,#318,#319,#320,#321,#322,#323));
#325=STYLED_ITEM('',(#326),#333);
#326=PRESENTATION_STYLE_ASSIGNMENT((#327));
#327=SURFACE_STYLE_USAGE(.BOTH.,#328);
#328=SURFACE_SIDE_STYLE('',(#329));
#329=SURFACE_STYLE_FILL_AREA(#330);
#330=FILL_AREA_STYLE('',(#331));
#331=FILL_AREA_STYLE_COLOUR('',#332);
#332=COLOUR_RGB('',0.689999997615814,0.689999997615814,0.689999997615814);
#333=MANIFOLD_SOLID_BREP('Rohrdrehgelenk DVL 12',#324);
#334=SHAPE_DEFINITION_REPRESENTATION(#574,#335);
#335=SHAPE_REPRESENTATION('Rohrdrehgelenk DVL 12',(#336),#569);
#336=AXIS2_PLACEMENT_3D('',#481,#379,#380);
#337=AXIS2_PLACEMENT_3D('',#482,#381,#382);
#338=AXIS2_PLACEMENT_3D('',#483,#383,#384);
#339=AXIS2_PLACEMENT_3D('',#488,#386,#387);
#340=AXIS2_PLACEMENT_3D('',#492,#389,#390);
#341=AXIS2_PLACEMENT_3D('',#496,#392,#393);
#342=AXIS2_PLACEMENT_3D('',#500,#395,#396);
#343=AXIS2_PLACEMENT_3D('',#501,#397,#398);
#344=AXIS2_PLACEMENT_3D('',#502,#399,#400);
#345=AXIS2_PLACEMENT_3D('',#506,#403,#404);
#346=AXIS2_PLACEMENT_3D('',#507,#405,#406);
#347=AXIS2_PLACEMENT_3D('',#509,#407,#408);
#348=AXIS2_PLACEMENT_3D('',#511,#409,#410);
#349=AXIS2_PLACEMENT_3D('',#512,#411,#412);
#350=AXIS2_PLACEMENT_3D('',#514,#413,#414);
#351=AXIS2_PLACEMENT_3D('',#515,#415,#416);
#352=AXIS2_PLACEMENT_3D('',#517,#417,#418);
#353=AXIS2_PLACEMENT_3D('',#518,#419,#420);
#354=AXIS2_PLACEMENT_3D('',#520,#421,#422);
#355=AXIS2_PLACEMENT_3D('',#521,#423,#424);
#356=AXIS2_PLACEMENT_3D('',#525,#426,#427);
#357=AXIS2_PLACEMENT_3D('',#529,#429,#430);
#358=AXIS2_PLACEMENT_3D('',#533,#432,#433);
#359=AXIS2_PLACEMENT_3D('',#537,#435,#436);
#360=AXIS2_PLACEMENT_3D('',#538,#437,#438);
#361=AXIS2_PLACEMENT_3D('',#539,#439,#440);
#362=AXIS2_PLACEMENT_3D('',#543,#443,#444);
#363=AXIS2_PLACEMENT_3D('',#545,#446,#447);
#364=AXIS2_PLACEMENT_3D('',#546,#448,#449);
#365=AXIS2_PLACEMENT_3D('',#548,#451,#452);
#366=AXIS2_PLACEMENT_3D('',#549,#453,#454);
#367=AXIS2_PLACEMENT_3D('',#550,#455,#456);
#368=AXIS2_PLACEMENT_3D('',#552,#457,#458);
#369=AXIS2_PLACEMENT_3D('',#554,#459,#460);
#370=AXIS2_PLACEMENT_3D('',#555,#461,#462);
#371=AXIS2_PLACEMENT_3D('',#556,#463,#464);
#372=AXIS2_PLACEMENT_3D('',#558,#465,#466);
#373=AXIS2_PLACEMENT_3D('',#559,#467,#468);
#374=AXIS2_PLACEMENT_3D('',#561,#469,#470);
#375=AXIS2_PLACEMENT_3D('',#562,#471,#472);
#376=AXIS2_PLACEMENT_3D('',#564,#474,#475);
#377=AXIS2_PLACEMENT_3D('',#565,#476,#477);
#378=AXIS2_PLACEMENT_3D('',#567,#479,#480);
#379=DIRECTION('',(0.,0.,1.));
#380=DIRECTION('',(1.,0.,0.));
#381=DIRECTION('',(0.,0.,-1.));
#382=DIRECTION('',(-1.,0.,0.));
#383=DIRECTION('',(0.,0.,1.));
#384=DIRECTION('',(1.,0.,0.));
#385=DIRECTION('',(0.,0.,-1.));
#386=DIRECTION('',(0.,0.,1.));
#387=DIRECTION('',(1.,0.,0.));
#388=DIRECTION('',(0.,0.,-1.));
#389=DIRECTION('',(0.,0.,1.));
#390=DIRECTION('',(1.,0.,0.));
#391=DIRECTION('',(0.,0.,-1.));
#392=DIRECTION('',(0.,0.,1.));
#393=DIRECTION('',(1.,0.,0.));
#394=DIRECTION('',(0.,0.,-1.));
#395=DIRECTION('',(0.,0.,1.));
#396=DIRECTION('',(1.,0.,0.));
#397=DIRECTION('',(0.,0.,1.));
#398=DIRECTION('',(1.,0.,0.));
#399=DIRECTION('',(6.12323399573676E-17,0.,-1.));
#400=DIRECTION('',(-1.,0.,-6.12323399573676E-17));
#401=DIRECTION('',(0.,1.,0.));
#402=DIRECTION('',(0.,-1.,0.));
#403=DIRECTION('',(6.12323399573677E-17,0.,-1.));
#404=DIRECTION('',(-1.,0.,-6.12323399573677E-17));
#405=DIRECTION('',(6.12323399573677E-17,0.,-1.));
#406=DIRECTION('',(-1.,0.,-6.12323399573677E-17));
#407=DIRECTION('',(6.12323399573677E-17,0.,-1.));
#408=DIRECTION('',(-1.,0.,-6.12323399573677E-17));
#409=DIRECTION('',(6.12323399573677E-17,0.,-1.));
#410=DIRECTION('',(-1.,0.,-6.12323399573677E-17));
#411=DIRECTION('',(6.12323399573677E-17,0.,-1.));
#412=DIRECTION('',(-1.,0.,-6.12323399573677E-17));
#413=DIRECTION('',(-6.12323399573677E-17,0.,1.));
#414=DIRECTION('',(1.,0.,6.12323399573677E-17));
#415=DIRECTION('',(6.12323399573677E-17,0.,-1.));
#416=DIRECTION('',(-1.,0.,-6.12323399573677E-17));
#417=DIRECTION('',(-6.12323399573677E-17,0.,1.));
#418=DIRECTION('',(1.,0.,6.12323399573677E-17));
#419=DIRECTION('',(0.,0.,1.));
#420=DIRECTION('',(1.,0.,0.));
#421=DIRECTION('',(6.12323399573677E-17,0.,-1.));
#422=DIRECTION('',(-1.,0.,-6.12323399573677E-17));
#423=DIRECTION('',(0.,0.,1.));
#424=DIRECTION('',(1.,0.,0.));
#425=DIRECTION('',(0.,0.,1.));
#426=DIRECTION('',(0.,0.,1.));
#427=DIRECTION('',(1.,0.,0.));
#428=DIRECTION('',(0.,0.,1.));
#429=DIRECTION('',(0.,0.,1.));
#430=DIRECTION('',(1.,0.,0.));
#431=DIRECTION('',(0.,0.,1.));
#432=DIRECTION('',(0.,0.,1.));
#433=DIRECTION('',(1.,0.,0.));
#434=DIRECTION('',(0.,0.,1.));
#435=DIRECTION('',(0.,0.,1.));
#436=DIRECTION('',(1.,0.,0.));
#437=DIRECTION('',(0.,0.,1.));
#438=DIRECTION('',(1.,0.,0.));
#439=DIRECTION('',(6.12323399573677E-17,0.,-1.));
#440=DIRECTION('',(-1.,0.,-6.12323399573677E-17));
#441=DIRECTION('',(0.,-1.,0.));
#442=DIRECTION('',(0.,1.,0.));
#443=DIRECTION('',(1.,0.,0.));
#444=DIRECTION('',(0.,0.,-1.));
#445=DIRECTION('',(0.,-1.,0.));
#446=DIRECTION('',(0.,0.,1.));
#447=DIRECTION('',(1.,0.,0.));
#448=DIRECTION('',(-1.,0.,0.));
#449=DIRECTION('',(0.,0.,1.));
#450=DIRECTION('',(0.,1.,0.));
#451=DIRECTION('',(0.,0.,1.));
#452=DIRECTION('',(1.,0.,0.));
#453=DIRECTION('',(6.12323399573677E-17,0.,-1.));
#454=DIRECTION('',(-1.,0.,-6.12323399573677E-17));
#455=DIRECTION('',(6.12323399573677E-17,0.,-1.));
#456=DIRECTION('',(-1.,0.,-6.12323399573677E-17));
#457=DIRECTION('',(6.12323399573677E-17,0.,-1.));
#458=DIRECTION('',(-1.,0.,-6.12323399573677E-17));
#459=DIRECTION('',(6.12323399573677E-17,0.,-1.));
#460=DIRECTION('',(-1.,0.,-6.12323399573677E-17));
#461=DIRECTION('',(6.12323399573676E-17,0.,-1.));
#462=DIRECTION('',(-1.,0.,-6.12323399573676E-17));
#463=DIRECTION('',(6.12323399573676E-17,0.,-1.));
#464=DIRECTION('',(-1.,0.,-6.12323399573676E-17));
#465=DIRECTION('',(-6.12323399573676E-17,0.,1.));
#466=DIRECTION('',(1.,0.,6.12323399573676E-17));
#467=DIRECTION('',(-6.12323399573676E-17,0.,1.));
#468=DIRECTION('',(1.,0.,6.12323399573676E-17));
#469=DIRECTION('',(0.,0.,-1.));
#470=DIRECTION('',(-1.,0.,0.));
#471=DIRECTION('',(-1.,0.,0.));
#472=DIRECTION('',(0.,0.,1.));
#473=DIRECTION('',(0.,-1.,0.));
#474=DIRECTION('',(0.,0.,1.));
#475=DIRECTION('',(1.,0.,0.));
#476=DIRECTION('',(0.,0.,1.));
#477=DIRECTION('',(1.,0.,0.));
#478=DIRECTION('',(0.,1.,0.));
#479=DIRECTION('',(1.,0.,0.));
#480=DIRECTION('',(0.,0.,-1.));
#481=CARTESIAN_POINT('',(0.,0.,0.));
#482=CARTESIAN_POINT('',(0.,0.,52.));
#483=CARTESIAN_POINT('',(0.,0.,45.));
#484=CARTESIAN_POINT('',(12.,0.,45.));
#485=CARTESIAN_POINT('',(-11.,4.79583152331272,52.));
#486=CARTESIAN_POINT('',(-11.,4.79583152331272,52.));
#487=CARTESIAN_POINT('',(-11.,4.79583152331272,46.1666666666667));
#488=CARTESIAN_POINT('',(0.,0.,52.));
#489=CARTESIAN_POINT('',(11.,4.79583152331272,52.));
#490=CARTESIAN_POINT('',(11.,4.79583152331272,52.));
#491=CARTESIAN_POINT('',(11.,4.79583152331272,46.1666666666667));
#492=CARTESIAN_POINT('',(0.,0.,46.1666666666667));
#493=CARTESIAN_POINT('',(11.,-4.79583152331272,46.1666666666667));
#494=CARTESIAN_POINT('',(11.,-4.79583152331272,52.));
#495=CARTESIAN_POINT('',(11.,-4.79583152331272,52.));
#496=CARTESIAN_POINT('',(0.,0.,52.));
#497=CARTESIAN_POINT('',(-11.,-4.79583152331272,52.));
#498=CARTESIAN_POINT('',(-11.,-4.79583152331272,52.));
#499=CARTESIAN_POINT('',(-11.,-4.79583152331272,46.1666666666667));
#500=CARTESIAN_POINT('',(0.,0.,46.1666666666667));
#501=CARTESIAN_POINT('',(0.,0.,52.));
#502=CARTESIAN_POINT('',(-3.18408167778312E-15,0.,52.));
#503=CARTESIAN_POINT('',(-7.475,0.,52.));
#504=CARTESIAN_POINT('',(11.,0.,52.));
#505=CARTESIAN_POINT('',(-11.,0.,52.));
#506=CARTESIAN_POINT('',(-1.04094977927525E-15,0.,17.));
#507=CARTESIAN_POINT('',(-1.01033360929657E-15,0.,16.5));
#508=CARTESIAN_POINT('',(-28.,0.,16.5));
#509=CARTESIAN_POINT('',(-1.04094977927525E-15,0.,17.));
#510=CARTESIAN_POINT('',(-27.5,0.,17.));
#511=CARTESIAN_POINT('',(0.,0.,0.));
#512=CARTESIAN_POINT('',(-3.0616169978684E-17,0.,0.500000000000002));
#513=CARTESIAN_POINT('',(-28.,0.,0.5));
#514=CARTESIAN_POINT('',(-3.0616169978684E-17,0.,0.500000000000002));
#515=CARTESIAN_POINT('',(-3.52613104577924E-33,0.,5.75860900993539E-17));
#516=CARTESIAN_POINT('',(-27.5,0.,-1.62630325872826E-15));
#517=CARTESIAN_POINT('',(-27.5,0.,-1.65509630377793E-15));
#518=CARTESIAN_POINT('',(0.,0.,0.));
#519=CARTESIAN_POINT('',(12.,0.,0.));
#520=CARTESIAN_POINT('',(-2.75545529808154E-15,0.,45.));
#521=CARTESIAN_POINT('',(0.,0.,-5.));
#522=CARTESIAN_POINT('',(-11.,4.79583152331273,-5.));
#523=CARTESIAN_POINT('',(-11.,4.79583152331272,-6.33333333333333));
#524=CARTESIAN_POINT('',(-11.,4.79583152331272,-13.));
#525=CARTESIAN_POINT('',(0.,0.,-6.33333333333333));
#526=CARTESIAN_POINT('',(-11.,-4.79583152331272,-6.33333333333333));
#527=CARTESIAN_POINT('',(-11.,-4.79583152331273,-5.));
#528=CARTESIAN_POINT('',(-11.,-4.79583152331272,-13.));
#529=CARTESIAN_POINT('',(0.,0.,-13.));
#530=CARTESIAN_POINT('',(11.,-4.79583152331272,-13.));
#531=CARTESIAN_POINT('',(11.,-4.79583152331273,-5.));
#532=CARTESIAN_POINT('',(11.,-4.79583152331272,-6.33333333333333));
#533=CARTESIAN_POINT('',(0.,0.,-6.33333333333333));
#534=CARTESIAN_POINT('',(11.,4.79583152331272,-6.33333333333333));
#535=CARTESIAN_POINT('',(11.,4.79583152331273,-5.));
#536=CARTESIAN_POINT('',(11.,4.79583152331272,-13.));
#537=CARTESIAN_POINT('',(0.,0.,-13.));
#538=CARTESIAN_POINT('',(0.,0.,-13.));
#539=CARTESIAN_POINT('',(7.96020419445779E-16,0.,-13.));
#540=CARTESIAN_POINT('',(-7.475,0.,-13.));
#541=CARTESIAN_POINT('',(11.,0.,-13.));
#542=CARTESIAN_POINT('',(-11.,0.,-13.));
#543=CARTESIAN_POINT('',(-11.,17.,-6.33333333333333));
#544=CARTESIAN_POINT('',(-11.,17.,-6.33333333333333));
#545=CARTESIAN_POINT('',(0.,0.,-6.33333333333333));
#546=CARTESIAN_POINT('',(11.,-17.,-6.33333333333333));
#547=CARTESIAN_POINT('',(11.,-17.,-6.33333333333333));
#548=CARTESIAN_POINT('',(0.,0.,-6.33333333333333));
#549=CARTESIAN_POINT('',(-1.22464679914735E-16,0.,2.));
#550=CARTESIAN_POINT('',(-1.22464679914735E-16,0.,2.));
#551=CARTESIAN_POINT('',(-7.475,0.,2.));
#552=CARTESIAN_POINT('',(0.,0.,2.));
#553=CARTESIAN_POINT('',(-4.,0.,2.));
#554=CARTESIAN_POINT('',(7.9602041944578E-16,0.,-13.));
#555=CARTESIAN_POINT('',(-2.2655965784226E-15,0.,37.));
#556=CARTESIAN_POINT('',(-2.2655965784226E-15,0.,37.));
#557=CARTESIAN_POINT('',(-7.475,0.,37.));
#558=CARTESIAN_POINT('',(-7.475,0.,37.));
#559=CARTESIAN_POINT('',(0.,0.,37.));
#560=CARTESIAN_POINT('',(4.,0.,37.));
#561=CARTESIAN_POINT('',(0.,0.,65.));
#562=CARTESIAN_POINT('',(-11.,17.,46.1666666666667));
#563=CARTESIAN_POINT('',(-11.,17.,46.1666666666667));
#564=CARTESIAN_POINT('',(0.,0.,46.1666666666667));
#565=CARTESIAN_POINT('',(0.,0.,46.1666666666667));
#566=CARTESIAN_POINT('',(11.,-17.,46.1666666666667));
#567=CARTESIAN_POINT('',(11.,-17.,46.1666666666667));
#568=MECHANICAL_DESIGN_GEOMETRIC_PRESENTATION_REPRESENTATION('',(#325),
#569);
#569=(
GEOMETRIC_REPRESENTATION_CONTEXT(3)
GLOBAL_UNCERTAINTY_ASSIGNED_CONTEXT((#570))
GLOBAL_UNIT_ASSIGNED_CONTEXT((#573,#572,#571))
REPRESENTATION_CONTEXT('Rohrdrehgelenk DVL 12',
'TOP_LEVEL_ASSEMBLY_PART')
);
#570=UNCERTAINTY_MEASURE_WITH_UNIT(LENGTH_MEASURE(0.005),#573,
'DISTANCE_ACCURACY_VALUE','Maximum Tolerance applied to model');
#571=(
NAMED_UNIT(*)
SI_UNIT($,.STERADIAN.)
SOLID_ANGLE_UNIT()
);
#572=(
NAMED_UNIT(*)
PLANE_ANGLE_UNIT()
SI_UNIT($,.RADIAN.)
);
#573=(
LENGTH_UNIT()
NAMED_UNIT(*)
SI_UNIT(.MILLI.,.METRE.)
);
#574=PRODUCT_DEFINITION_SHAPE('','',#575);
#575=PRODUCT_DEFINITION('','',#577,#576);
#576=DESIGN_CONTEXT('',#583,'design');
#577=PRODUCT_DEFINITION_FORMATION_WITH_SPECIFIED_SOURCE('','',#579,
 .NOT_KNOWN.);
#578=PRODUCT_RELATED_PRODUCT_CATEGORY('','',(#579));
#579=PRODUCT('Rohrdrehgelenk DVL 12','Rohrdrehgelenk DVL 12',
'Rohrdrehgelenk DVL 12',(#581));
#580=PRODUCT_CATEGORY('','');
#581=MECHANICAL_CONTEXT('',#583,'mechanical');
#582=APPLICATION_PROTOCOL_DEFINITION('international standard',
'config_control_design',2010,#583);
#583=APPLICATION_CONTEXT(
'configuration controlled 3D designs of mechanical parts and assemblie
s');
ENDSEC;
END-ISO-10303-21;
