ISO-10303-21;
HEADER;
/* Generated by software containing ST-Developer
 * from STEP Tools, Inc. (www.steptools.com) 
 */
/* OPTION: using custom renumber hook */

FILE_DESCRIPTION(
/* description */ ('STEP AP203'),
/* implementation_level */ '2;1');

FILE_NAME(
/* name */ 'Plug Cone VKM 10-01',
/* time_stamp */ '2025-01-14T12:03:07+01:00',
/* author */ ('License CC BY-ND 4.0'),
/* organization */ ('CADENAS'),
/* preprocessor_version */ 'ST-DEVELOPER v19.3',
/* originating_system */ 'PARTsolutions',
/* authorisation */ '  ');

FILE_SCHEMA (('CONFIG_CONTROL_DESIGN'));
ENDSEC;

DATA;
#10=PROPERTY_DEFINITION_REPRESENTATION(#14,#12);
#11=PROPERTY_DEFINITION_REPRESENTATION(#15,#13);
#12=REPRESENTATION('',(#16),#625);
#13=REPRESENTATION('',(#17),#625);
#14=PROPERTY_DEFINITION('pmi validation property','',#630);
#15=PROPERTY_DEFINITION('pmi validation property','',#630);
#16=VALUE_REPRESENTATION_ITEM('number of annotations',COUNT_MEASURE(0.));
#17=VALUE_REPRESENTATION_ITEM('number of views',COUNT_MEASURE(0.));
#18=SHAPE_REPRESENTATION_RELATIONSHIP('','',#431,#19);
#19=ADVANCED_BREP_SHAPE_REPRESENTATION('',(#429),#625);
#20=TOROIDAL_SURFACE('',#445,6.04856334648893,0.750000000000001);
#21=DRAUGHTING_PRE_DEFINED_COLOUR('black');
#22=CYLINDRICAL_SURFACE('',#437,8.188);
#23=CYLINDRICAL_SURFACE('',#462,5.);
#24=CONICAL_SURFACE('',#435,9.,0.785398163397448);
#25=CONICAL_SURFACE('',#441,7.5,0.209439510239319);
#26=CONICAL_SURFACE('',#449,6.47972850398389,0.20943951023932);
#27=CONICAL_SURFACE('',#460,4.42264973081037,0.523598775598298);
#28=LINE('',#553,#46);
#29=LINE('',#556,#47);
#30=LINE('',#558,#48);
#31=LINE('',#560,#49);
#32=LINE('',#562,#50);
#33=LINE('',#564,#51);
#34=LINE('',#591,#52);
#35=LINE('',#594,#53);
#36=LINE('',#595,#54);
#37=LINE('',#597,#55);
#38=LINE('',#599,#56);
#39=LINE('',#601,#57);
#40=LINE('',#603,#58);
#41=LINE('',#605,#59);
#42=LINE('',#607,#60);
#43=LINE('',#609,#61);
#44=LINE('',#611,#62);
#45=LINE('',#613,#63);
#46=VECTOR('',#471,1000.);
#47=VECTOR('',#472,1000.);
#48=VECTOR('',#473,1000.);
#49=VECTOR('',#474,1000.);
#50=VECTOR('',#475,1000.);
#51=VECTOR('',#476,1000.);
#52=VECTOR('',#513,1000.);
#53=VECTOR('',#514,1000.);
#54=VECTOR('',#515,1000.);
#55=VECTOR('',#518,1000.);
#56=VECTOR('',#519,1000.);
#57=VECTOR('',#522,1000.);
#58=VECTOR('',#523,1000.);
#59=VECTOR('',#526,1000.);
#60=VECTOR('',#527,1000.);
#61=VECTOR('',#530,1000.);
#62=VECTOR('',#531,1000.);
#63=VECTOR('',#534,1000.);
#64=ORIENTED_EDGE('',*,*,#124,.F.);
#65=ORIENTED_EDGE('',*,*,#125,.F.);
#66=ORIENTED_EDGE('',*,*,#126,.F.);
#67=ORIENTED_EDGE('',*,*,#127,.F.);
#68=ORIENTED_EDGE('',*,*,#128,.F.);
#69=ORIENTED_EDGE('',*,*,#129,.F.);
#70=ORIENTED_EDGE('',*,*,#130,.F.);
#71=ORIENTED_EDGE('',*,*,#131,.F.);
#72=ORIENTED_EDGE('',*,*,#124,.T.);
#73=ORIENTED_EDGE('',*,*,#132,.F.);
#74=ORIENTED_EDGE('',*,*,#131,.T.);
#75=ORIENTED_EDGE('',*,*,#133,.F.);
#76=ORIENTED_EDGE('',*,*,#132,.T.);
#77=ORIENTED_EDGE('',*,*,#134,.F.);
#78=ORIENTED_EDGE('',*,*,#133,.T.);
#79=ORIENTED_EDGE('',*,*,#135,.F.);
#80=ORIENTED_EDGE('',*,*,#134,.T.);
#81=ORIENTED_EDGE('',*,*,#135,.T.);
#82=ORIENTED_EDGE('',*,*,#136,.F.);
#83=ORIENTED_EDGE('',*,*,#137,.F.);
#84=ORIENTED_EDGE('',*,*,#136,.T.);
#85=ORIENTED_EDGE('',*,*,#138,.F.);
#86=ORIENTED_EDGE('',*,*,#137,.T.);
#87=ORIENTED_EDGE('',*,*,#138,.T.);
#88=ORIENTED_EDGE('',*,*,#139,.F.);
#89=ORIENTED_EDGE('',*,*,#140,.F.);
#90=ORIENTED_EDGE('',*,*,#125,.T.);
#91=ORIENTED_EDGE('',*,*,#141,.T.);
#92=ORIENTED_EDGE('',*,*,#142,.F.);
#93=ORIENTED_EDGE('',*,*,#143,.F.);
#94=ORIENTED_EDGE('',*,*,#126,.T.);
#95=ORIENTED_EDGE('',*,*,#140,.T.);
#96=ORIENTED_EDGE('',*,*,#144,.F.);
#97=ORIENTED_EDGE('',*,*,#145,.F.);
#98=ORIENTED_EDGE('',*,*,#127,.T.);
#99=ORIENTED_EDGE('',*,*,#143,.T.);
#100=ORIENTED_EDGE('',*,*,#146,.F.);
#101=ORIENTED_EDGE('',*,*,#147,.F.);
#102=ORIENTED_EDGE('',*,*,#128,.T.);
#103=ORIENTED_EDGE('',*,*,#145,.T.);
#104=ORIENTED_EDGE('',*,*,#148,.F.);
#105=ORIENTED_EDGE('',*,*,#149,.F.);
#106=ORIENTED_EDGE('',*,*,#129,.T.);
#107=ORIENTED_EDGE('',*,*,#147,.T.);
#108=ORIENTED_EDGE('',*,*,#150,.F.);
#109=ORIENTED_EDGE('',*,*,#141,.F.);
#110=ORIENTED_EDGE('',*,*,#130,.T.);
#111=ORIENTED_EDGE('',*,*,#149,.T.);
#112=ORIENTED_EDGE('',*,*,#151,.F.);
#113=ORIENTED_EDGE('',*,*,#152,.F.);
#114=ORIENTED_EDGE('',*,*,#151,.T.);
#115=ORIENTED_EDGE('',*,*,#153,.F.);
#116=ORIENTED_EDGE('',*,*,#152,.T.);
#117=ORIENTED_EDGE('',*,*,#139,.T.);
#118=ORIENTED_EDGE('',*,*,#150,.T.);
#119=ORIENTED_EDGE('',*,*,#148,.T.);
#120=ORIENTED_EDGE('',*,*,#146,.T.);
#121=ORIENTED_EDGE('',*,*,#144,.T.);
#122=ORIENTED_EDGE('',*,*,#142,.T.);
#123=ORIENTED_EDGE('',*,*,#153,.T.);
#124=EDGE_CURVE('',#154,#154,#178,.T.);
#125=EDGE_CURVE('',#155,#156,#28,.T.);
#126=EDGE_CURVE('',#157,#155,#29,.T.);
#127=EDGE_CURVE('',#158,#157,#30,.T.);
#128=EDGE_CURVE('',#159,#158,#31,.T.);
#129=EDGE_CURVE('',#160,#159,#32,.T.);
#130=EDGE_CURVE('',#156,#160,#33,.T.);
#131=EDGE_CURVE('',#161,#161,#179,.T.);
#132=EDGE_CURVE('',#162,#162,#180,.T.);
#133=EDGE_CURVE('',#163,#163,#181,.T.);
#134=EDGE_CURVE('',#164,#164,#182,.T.);
#135=EDGE_CURVE('',#165,#165,#183,.T.);
#136=EDGE_CURVE('',#166,#166,#184,.T.);
#137=EDGE_CURVE('',#167,#167,#185,.T.);
#138=EDGE_CURVE('',#168,#168,#186,.T.);
#139=EDGE_CURVE('',#169,#170,#34,.T.);
#140=EDGE_CURVE('',#155,#169,#35,.T.);
#141=EDGE_CURVE('',#156,#170,#36,.T.);
#142=EDGE_CURVE('',#171,#169,#37,.T.);
#143=EDGE_CURVE('',#157,#171,#38,.T.);
#144=EDGE_CURVE('',#172,#171,#39,.T.);
#145=EDGE_CURVE('',#158,#172,#40,.T.);
#146=EDGE_CURVE('',#173,#172,#41,.T.);
#147=EDGE_CURVE('',#159,#173,#42,.T.);
#148=EDGE_CURVE('',#174,#173,#43,.T.);
#149=EDGE_CURVE('',#160,#174,#44,.T.);
#150=EDGE_CURVE('',#170,#174,#45,.T.);
#151=EDGE_CURVE('',#175,#175,#187,.T.);
#152=EDGE_CURVE('',#176,#176,#188,.T.);
#153=EDGE_CURVE('',#177,#177,#189,.T.);
#154=VERTEX_POINT('',#552);
#155=VERTEX_POINT('',#554);
#156=VERTEX_POINT('',#555);
#157=VERTEX_POINT('',#557);
#158=VERTEX_POINT('',#559);
#159=VERTEX_POINT('',#561);
#160=VERTEX_POINT('',#563);
#161=VERTEX_POINT('',#567);
#162=VERTEX_POINT('',#570);
#163=VERTEX_POINT('',#573);
#164=VERTEX_POINT('',#576);
#165=VERTEX_POINT('',#579);
#166=VERTEX_POINT('',#582);
#167=VERTEX_POINT('',#585);
#168=VERTEX_POINT('',#588);
#169=VERTEX_POINT('',#592);
#170=VERTEX_POINT('',#593);
#171=VERTEX_POINT('',#598);
#172=VERTEX_POINT('',#602);
#173=VERTEX_POINT('',#606);
#174=VERTEX_POINT('',#610);
#175=VERTEX_POINT('',#616);
#176=VERTEX_POINT('',#619);
#177=VERTEX_POINT('',#622);
#178=CIRCLE('',#434,9.);
#179=CIRCLE('',#436,8.188);
#180=CIRCLE('',#438,8.188);
#181=CIRCLE('',#440,7.5);
#182=CIRCLE('',#442,6.79856334648893);
#183=CIRCLE('',#444,6.04856334648893);
#184=CIRCLE('',#446,6.04856334648893);
#185=CIRCLE('',#448,6.47972850398389);
#186=CIRCLE('',#450,6.11838234914486);
#187=CIRCLE('',#459,4.42264973081037);
#188=CIRCLE('',#461,5.);
#189=CIRCLE('',#463,5.);
#190=EDGE_LOOP('',(#64));
#191=EDGE_LOOP('',(#65,#66,#67,#68,#69,#70));
#192=EDGE_LOOP('',(#71));
#193=EDGE_LOOP('',(#72));
#194=EDGE_LOOP('',(#73));
#195=EDGE_LOOP('',(#74));
#196=EDGE_LOOP('',(#75));
#197=EDGE_LOOP('',(#76));
#198=EDGE_LOOP('',(#77));
#199=EDGE_LOOP('',(#78));
#200=EDGE_LOOP('',(#79));
#201=EDGE_LOOP('',(#80));
#202=EDGE_LOOP('',(#81));
#203=EDGE_LOOP('',(#82));
#204=EDGE_LOOP('',(#83));
#205=EDGE_LOOP('',(#84));
#206=EDGE_LOOP('',(#85));
#207=EDGE_LOOP('',(#86));
#208=EDGE_LOOP('',(#87));
#209=EDGE_LOOP('',(#88,#89,#90,#91));
#210=EDGE_LOOP('',(#92,#93,#94,#95));
#211=EDGE_LOOP('',(#96,#97,#98,#99));
#212=EDGE_LOOP('',(#100,#101,#102,#103));
#213=EDGE_LOOP('',(#104,#105,#106,#107));
#214=EDGE_LOOP('',(#108,#109,#110,#111));
#215=EDGE_LOOP('',(#112));
#216=EDGE_LOOP('',(#113));
#217=EDGE_LOOP('',(#114));
#218=EDGE_LOOP('',(#115));
#219=EDGE_LOOP('',(#116));
#220=EDGE_LOOP('',(#117,#118,#119,#120,#121,#122));
#221=EDGE_LOOP('',(#123));
#222=FACE_BOUND('',#190,.T.);
#223=FACE_BOUND('',#191,.T.);
#224=FACE_BOUND('',#192,.T.);
#225=FACE_BOUND('',#193,.T.);
#226=FACE_BOUND('',#194,.T.);
#227=FACE_BOUND('',#195,.T.);
#228=FACE_BOUND('',#196,.T.);
#229=FACE_BOUND('',#197,.T.);
#230=FACE_BOUND('',#198,.T.);
#231=FACE_BOUND('',#199,.T.);
#232=FACE_BOUND('',#200,.T.);
#233=FACE_BOUND('',#201,.T.);
#234=FACE_BOUND('',#202,.T.);
#235=FACE_BOUND('',#203,.T.);
#236=FACE_BOUND('',#204,.T.);
#237=FACE_BOUND('',#205,.T.);
#238=FACE_BOUND('',#206,.T.);
#239=FACE_BOUND('',#207,.T.);
#240=FACE_BOUND('',#208,.T.);
#241=FACE_BOUND('',#209,.T.);
#242=FACE_BOUND('',#210,.T.);
#243=FACE_BOUND('',#211,.T.);
#244=FACE_BOUND('',#212,.T.);
#245=FACE_BOUND('',#213,.T.);
#246=FACE_BOUND('',#214,.T.);
#247=FACE_BOUND('',#215,.T.);
#248=FACE_BOUND('',#216,.T.);
#249=FACE_BOUND('',#217,.T.);
#250=FACE_BOUND('',#218,.T.);
#251=FACE_BOUND('',#219,.T.);
#252=FACE_BOUND('',#220,.T.);
#253=FACE_BOUND('',#221,.T.);
#254=PLANE('',#433);
#255=PLANE('',#439);
#256=PLANE('',#443);
#257=PLANE('',#447);
#258=PLANE('',#451);
#259=PLANE('',#452);
#260=PLANE('',#453);
#261=PLANE('',#454);
#262=PLANE('',#455);
#263=PLANE('',#456);
#264=PLANE('',#457);
#265=PLANE('',#458);
#266=PLANE('',#464);
#267=STYLED_ITEM('',(#287),#408);
#268=STYLED_ITEM('',(#288),#409);
#269=STYLED_ITEM('',(#289),#410);
#270=STYLED_ITEM('',(#290),#411);
#271=STYLED_ITEM('',(#291),#412);
#272=STYLED_ITEM('',(#292),#413);
#273=STYLED_ITEM('',(#293),#414);
#274=STYLED_ITEM('',(#294),#415);
#275=STYLED_ITEM('',(#295),#416);
#276=STYLED_ITEM('',(#296),#417);
#277=STYLED_ITEM('',(#297),#418);
#278=STYLED_ITEM('',(#298),#419);
#279=STYLED_ITEM('',(#299),#420);
#280=STYLED_ITEM('',(#300),#421);
#281=STYLED_ITEM('',(#301),#422);
#282=STYLED_ITEM('',(#302),#423);
#283=STYLED_ITEM('',(#303),#424);
#284=STYLED_ITEM('',(#304),#425);
#285=STYLED_ITEM('',(#305),#426);
#286=STYLED_ITEM('',(#306),#427);
#287=PRESENTATION_STYLE_ASSIGNMENT((#307));
#288=PRESENTATION_STYLE_ASSIGNMENT((#308));
#289=PRESENTATION_STYLE_ASSIGNMENT((#309));
#290=PRESENTATION_STYLE_ASSIGNMENT((#310));
#291=PRESENTATION_STYLE_ASSIGNMENT((#311));
#292=PRESENTATION_STYLE_ASSIGNMENT((#312));
#293=PRESENTATION_STYLE_ASSIGNMENT((#313));
#294=PRESENTATION_STYLE_ASSIGNMENT((#314));
#295=PRESENTATION_STYLE_ASSIGNMENT((#315));
#296=PRESENTATION_STYLE_ASSIGNMENT((#316));
#297=PRESENTATION_STYLE_ASSIGNMENT((#317));
#298=PRESENTATION_STYLE_ASSIGNMENT((#318));
#299=PRESENTATION_STYLE_ASSIGNMENT((#319));
#300=PRESENTATION_STYLE_ASSIGNMENT((#320));
#301=PRESENTATION_STYLE_ASSIGNMENT((#321));
#302=PRESENTATION_STYLE_ASSIGNMENT((#322));
#303=PRESENTATION_STYLE_ASSIGNMENT((#323));
#304=PRESENTATION_STYLE_ASSIGNMENT((#324));
#305=PRESENTATION_STYLE_ASSIGNMENT((#325));
#306=PRESENTATION_STYLE_ASSIGNMENT((#326));
#307=SURFACE_STYLE_USAGE(.BOTH.,#327);
#308=SURFACE_STYLE_USAGE(.BOTH.,#328);
#309=SURFACE_STYLE_USAGE(.BOTH.,#329);
#310=SURFACE_STYLE_USAGE(.BOTH.,#330);
#311=SURFACE_STYLE_USAGE(.BOTH.,#331);
#312=SURFACE_STYLE_USAGE(.BOTH.,#332);
#313=SURFACE_STYLE_USAGE(.BOTH.,#333);
#314=SURFACE_STYLE_USAGE(.BOTH.,#334);
#315=SURFACE_STYLE_USAGE(.BOTH.,#335);
#316=SURFACE_STYLE_USAGE(.BOTH.,#336);
#317=SURFACE_STYLE_USAGE(.BOTH.,#337);
#318=SURFACE_STYLE_USAGE(.BOTH.,#338);
#319=SURFACE_STYLE_USAGE(.BOTH.,#339);
#320=SURFACE_STYLE_USAGE(.BOTH.,#340);
#321=SURFACE_STYLE_USAGE(.BOTH.,#341);
#322=SURFACE_STYLE_USAGE(.BOTH.,#342);
#323=SURFACE_STYLE_USAGE(.BOTH.,#343);
#324=SURFACE_STYLE_USAGE(.BOTH.,#344);
#325=SURFACE_STYLE_USAGE(.BOTH.,#345);
#326=SURFACE_STYLE_USAGE(.BOTH.,#346);
#327=SURFACE_SIDE_STYLE('',(#347));
#328=SURFACE_SIDE_STYLE('',(#348));
#329=SURFACE_SIDE_STYLE('',(#349));
#330=SURFACE_SIDE_STYLE('',(#350));
#331=SURFACE_SIDE_STYLE('',(#351));
#332=SURFACE_SIDE_STYLE('',(#352));
#333=SURFACE_SIDE_STYLE('',(#353));
#334=SURFACE_SIDE_STYLE('',(#354));
#335=SURFACE_SIDE_STYLE('',(#355));
#336=SURFACE_SIDE_STYLE('',(#356));
#337=SURFACE_SIDE_STYLE('',(#357));
#338=SURFACE_SIDE_STYLE('',(#358));
#339=SURFACE_SIDE_STYLE('',(#359));
#340=SURFACE_SIDE_STYLE('',(#360));
#341=SURFACE_SIDE_STYLE('',(#361));
#342=SURFACE_SIDE_STYLE('',(#362));
#343=SURFACE_SIDE_STYLE('',(#363));
#344=SURFACE_SIDE_STYLE('',(#364));
#345=SURFACE_SIDE_STYLE('',(#365));
#346=SURFACE_SIDE_STYLE('',(#366));
#347=SURFACE_STYLE_FILL_AREA(#367);
#348=SURFACE_STYLE_FILL_AREA(#368);
#349=SURFACE_STYLE_FILL_AREA(#369);
#350=SURFACE_STYLE_FILL_AREA(#370);
#351=SURFACE_STYLE_FILL_AREA(#371);
#352=SURFACE_STYLE_FILL_AREA(#372);
#353=SURFACE_STYLE_FILL_AREA(#373);
#354=SURFACE_STYLE_FILL_AREA(#374);
#355=SURFACE_STYLE_FILL_AREA(#375);
#356=SURFACE_STYLE_FILL_AREA(#376);
#357=SURFACE_STYLE_FILL_AREA(#377);
#358=SURFACE_STYLE_FILL_AREA(#378);
#359=SURFACE_STYLE_FILL_AREA(#379);
#360=SURFACE_STYLE_FILL_AREA(#380);
#361=SURFACE_STYLE_FILL_AREA(#381);
#362=SURFACE_STYLE_FILL_AREA(#382);
#363=SURFACE_STYLE_FILL_AREA(#383);
#364=SURFACE_STYLE_FILL_AREA(#384);
#365=SURFACE_STYLE_FILL_AREA(#385);
#366=SURFACE_STYLE_FILL_AREA(#386);
#367=FILL_AREA_STYLE('',(#387));
#368=FILL_AREA_STYLE('',(#388));
#369=FILL_AREA_STYLE('',(#389));
#370=FILL_AREA_STYLE('',(#390));
#371=FILL_AREA_STYLE('',(#391));
#372=FILL_AREA_STYLE('',(#392));
#373=FILL_AREA_STYLE('',(#393));
#374=FILL_AREA_STYLE('',(#394));
#375=FILL_AREA_STYLE('',(#395));
#376=FILL_AREA_STYLE('',(#396));
#377=FILL_AREA_STYLE('',(#397));
#378=FILL_AREA_STYLE('',(#398));
#379=FILL_AREA_STYLE('',(#399));
#380=FILL_AREA_STYLE('',(#400));
#381=FILL_AREA_STYLE('',(#401));
#382=FILL_AREA_STYLE('',(#402));
#383=FILL_AREA_STYLE('',(#403));
#384=FILL_AREA_STYLE('',(#404));
#385=FILL_AREA_STYLE('',(#405));
#386=FILL_AREA_STYLE('',(#406));
#387=FILL_AREA_STYLE_COLOUR('',#407);
#388=FILL_AREA_STYLE_COLOUR('',#407);
#389=FILL_AREA_STYLE_COLOUR('',#407);
#390=FILL_AREA_STYLE_COLOUR('',#407);
#391=FILL_AREA_STYLE_COLOUR('',#407);
#392=FILL_AREA_STYLE_COLOUR('',#407);
#393=FILL_AREA_STYLE_COLOUR('',#21);
#394=FILL_AREA_STYLE_COLOUR('',#407);
#395=FILL_AREA_STYLE_COLOUR('',#407);
#396=FILL_AREA_STYLE_COLOUR('',#407);
#397=FILL_AREA_STYLE_COLOUR('',#407);
#398=FILL_AREA_STYLE_COLOUR('',#407);
#399=FILL_AREA_STYLE_COLOUR('',#407);
#400=FILL_AREA_STYLE_COLOUR('',#407);
#401=FILL_AREA_STYLE_COLOUR('',#407);
#402=FILL_AREA_STYLE_COLOUR('',#407);
#403=FILL_AREA_STYLE_COLOUR('',#407);
#404=FILL_AREA_STYLE_COLOUR('',#407);
#405=FILL_AREA_STYLE_COLOUR('',#407);
#406=FILL_AREA_STYLE_COLOUR('',#407);
#407=COLOUR_RGB('',0.689999997615814,0.689999997615814,0.689999997615814);
#408=ADVANCED_FACE('',(#222,#223),#254,.F.);
#409=ADVANCED_FACE('',(#224,#225),#24,.F.);
#410=ADVANCED_FACE('',(#226,#227),#22,.F.);
#411=ADVANCED_FACE('',(#228,#229),#255,.F.);
#412=ADVANCED_FACE('',(#230,#231),#25,.T.);
#413=ADVANCED_FACE('',(#232,#233),#256,.F.);
#414=ADVANCED_FACE('',(#234,#235),#20,.T.);
#415=ADVANCED_FACE('',(#236,#237),#257,.F.);
#416=ADVANCED_FACE('',(#238,#239),#26,.T.);
#417=ADVANCED_FACE('',(#240),#258,.F.);
#418=ADVANCED_FACE('',(#241),#259,.T.);
#419=ADVANCED_FACE('',(#242),#260,.T.);
#420=ADVANCED_FACE('',(#243),#261,.T.);
#421=ADVANCED_FACE('',(#244),#262,.T.);
#422=ADVANCED_FACE('',(#245),#263,.T.);
#423=ADVANCED_FACE('',(#246),#264,.T.);
#424=ADVANCED_FACE('',(#247),#265,.F.);
#425=ADVANCED_FACE('',(#248,#249),#27,.T.);
#426=ADVANCED_FACE('',(#250,#251),#23,.T.);
#427=ADVANCED_FACE('',(#252,#253),#266,.F.);
#428=CLOSED_SHELL('',(#408,#409,#410,#411,#412,#413,#414,#415,#416,#417,
#418,#419,#420,#421,#422,#423,#424,#425,#426,#427));
#429=MANIFOLD_SOLID_BREP('Verschlusskegel VKM 10-01',#428);
#430=SHAPE_DEFINITION_REPRESENTATION(#630,#431);
#431=SHAPE_REPRESENTATION('Verschlusskegel VKM 10-01',(#432),#625);
#432=AXIS2_PLACEMENT_3D('',#549,#465,#466);
#433=AXIS2_PLACEMENT_3D('',#550,#467,#468);
#434=AXIS2_PLACEMENT_3D('',#551,#469,#470);
#435=AXIS2_PLACEMENT_3D('',#565,#477,#478);
#436=AXIS2_PLACEMENT_3D('',#566,#479,#480);
#437=AXIS2_PLACEMENT_3D('',#568,#481,#482);
#438=AXIS2_PLACEMENT_3D('',#569,#483,#484);
#439=AXIS2_PLACEMENT_3D('',#571,#485,#486);
#440=AXIS2_PLACEMENT_3D('',#572,#487,#488);
#441=AXIS2_PLACEMENT_3D('',#574,#489,#490);
#442=AXIS2_PLACEMENT_3D('',#575,#491,#492);
#443=AXIS2_PLACEMENT_3D('',#577,#493,#494);
#444=AXIS2_PLACEMENT_3D('',#578,#495,#496);
#445=AXIS2_PLACEMENT_3D('',#580,#497,#498);
#446=AXIS2_PLACEMENT_3D('',#581,#499,#500);
#447=AXIS2_PLACEMENT_3D('',#583,#501,#502);
#448=AXIS2_PLACEMENT_3D('',#584,#503,#504);
#449=AXIS2_PLACEMENT_3D('',#586,#505,#506);
#450=AXIS2_PLACEMENT_3D('',#587,#507,#508);
#451=AXIS2_PLACEMENT_3D('',#589,#509,#510);
#452=AXIS2_PLACEMENT_3D('',#590,#511,#512);
#453=AXIS2_PLACEMENT_3D('',#596,#516,#517);
#454=AXIS2_PLACEMENT_3D('',#600,#520,#521);
#455=AXIS2_PLACEMENT_3D('',#604,#524,#525);
#456=AXIS2_PLACEMENT_3D('',#608,#528,#529);
#457=AXIS2_PLACEMENT_3D('',#612,#532,#533);
#458=AXIS2_PLACEMENT_3D('',#614,#535,#536);
#459=AXIS2_PLACEMENT_3D('',#615,#537,#538);
#460=AXIS2_PLACEMENT_3D('',#617,#539,#540);
#461=AXIS2_PLACEMENT_3D('',#618,#541,#542);
#462=AXIS2_PLACEMENT_3D('',#620,#543,#544);
#463=AXIS2_PLACEMENT_3D('',#621,#545,#546);
#464=AXIS2_PLACEMENT_3D('',#623,#547,#548);
#465=DIRECTION('',(0.,0.,1.));
#466=DIRECTION('',(1.,0.,0.));
#467=DIRECTION('',(0.,0.,1.));
#468=DIRECTION('',(1.,0.,0.));
#469=DIRECTION('',(0.,0.,-1.));
#470=DIRECTION('',(-1.,0.,0.));
#471=DIRECTION('',(0.,-1.,0.));
#472=DIRECTION('',(-0.866025403784439,-0.5,0.));
#473=DIRECTION('',(-0.866025403784439,0.5,0.));
#474=DIRECTION('',(0.,1.,0.));
#475=DIRECTION('',(0.866025403784439,0.5,0.));
#476=DIRECTION('',(0.866025403784439,-0.5,0.));
#477=DIRECTION('',(0.,0.,-1.));
#478=DIRECTION('',(-1.,0.,0.));
#479=DIRECTION('',(0.,0.,-1.));
#480=DIRECTION('',(-1.,0.,0.));
#481=DIRECTION('',(0.,0.,-1.));
#482=DIRECTION('',(-1.,0.,0.));
#483=DIRECTION('',(0.,0.,-1.));
#484=DIRECTION('',(-1.,0.,0.));
#485=DIRECTION('',(0.,0.,1.));
#486=DIRECTION('',(1.,0.,0.));
#487=DIRECTION('',(0.,0.,-1.));
#488=DIRECTION('',(-1.,0.,0.));
#489=DIRECTION('',(0.,0.,1.));
#490=DIRECTION('',(1.,0.,0.));
#491=DIRECTION('',(0.,0.,-1.));
#492=DIRECTION('',(-1.,0.,0.));
#493=DIRECTION('',(0.,0.,1.));
#494=DIRECTION('',(1.,0.,0.));
#495=DIRECTION('',(0.,0.,-1.));
#496=DIRECTION('',(-1.,0.,0.));
#497=DIRECTION('',(0.,0.,-1.));
#498=DIRECTION('',(-1.,0.,0.));
#499=DIRECTION('',(0.,0.,-1.));
#500=DIRECTION('',(-1.,0.,0.));
#501=DIRECTION('',(0.,0.,-1.));
#502=DIRECTION('',(-1.,0.,0.));
#503=DIRECTION('',(0.,0.,-1.));
#504=DIRECTION('',(-1.,0.,0.));
#505=DIRECTION('',(0.,0.,1.));
#506=DIRECTION('',(1.,0.,0.));
#507=DIRECTION('',(0.,0.,-1.));
#508=DIRECTION('',(-1.,0.,0.));
#509=DIRECTION('',(0.,0.,1.));
#510=DIRECTION('',(1.,0.,0.));
#511=DIRECTION('',(-1.,0.,0.));
#512=DIRECTION('',(0.,0.,1.));
#513=DIRECTION('',(0.,-1.,0.));
#514=DIRECTION('',(0.,0.,1.));
#515=DIRECTION('',(0.,0.,1.));
#516=DIRECTION('',(-0.5,0.866025403784439,0.));
#517=DIRECTION('',(-0.866025403784439,-0.5,0.));
#518=DIRECTION('',(-0.866025403784439,-0.5,0.));
#519=DIRECTION('',(0.,0.,1.));
#520=DIRECTION('',(0.5,0.866025403784439,0.));
#521=DIRECTION('',(-0.866025403784439,0.5,0.));
#522=DIRECTION('',(-0.866025403784439,0.5,0.));
#523=DIRECTION('',(0.,0.,1.));
#524=DIRECTION('',(1.,0.,0.));
#525=DIRECTION('',(0.,0.,-1.));
#526=DIRECTION('',(0.,1.,0.));
#527=DIRECTION('',(0.,0.,1.));
#528=DIRECTION('',(0.5,-0.866025403784439,0.));
#529=DIRECTION('',(0.866025403784439,0.5,0.));
#530=DIRECTION('',(0.866025403784439,0.5,0.));
#531=DIRECTION('',(0.,0.,1.));
#532=DIRECTION('',(-0.5,-0.866025403784439,0.));
#533=DIRECTION('',(0.866025403784439,-0.5,0.));
#534=DIRECTION('',(0.866025403784439,-0.5,0.));
#535=DIRECTION('',(0.,0.,-1.));
#536=DIRECTION('',(-1.,0.,0.));
#537=DIRECTION('',(0.,0.,-1.));
#538=DIRECTION('',(-1.,0.,0.));
#539=DIRECTION('',(0.,0.,-1.));
#540=DIRECTION('',(-1.,0.,0.));
#541=DIRECTION('',(0.,0.,-1.));
#542=DIRECTION('',(-1.,0.,0.));
#543=DIRECTION('',(0.,0.,-1.));
#544=DIRECTION('',(-1.,0.,0.));
#545=DIRECTION('',(0.,0.,-1.));
#546=DIRECTION('',(-1.,0.,0.));
#547=DIRECTION('',(0.,0.,-1.));
#548=DIRECTION('',(-1.,0.,0.));
#549=CARTESIAN_POINT('',(0.,0.,0.));
#550=CARTESIAN_POINT('',(-12.7017059221718,0.,-21.5));
#551=CARTESIAN_POINT('',(0.,0.,-21.5));
#552=CARTESIAN_POINT('',(-9.,0.,-21.5));
#553=CARTESIAN_POINT('',(-11.,0.,-21.5));
#554=CARTESIAN_POINT('',(-11.,6.35085296108588,-21.5));
#555=CARTESIAN_POINT('',(-11.,-6.35085296108588,-21.5));
#556=CARTESIAN_POINT('',(0.,12.7017059221718,-21.5));
#557=CARTESIAN_POINT('',(0.,12.7017059221718,-21.5));
#558=CARTESIAN_POINT('',(11.,6.35085296108588,-21.5));
#559=CARTESIAN_POINT('',(11.,6.35085296108588,-21.5));
#560=CARTESIAN_POINT('',(11.,-6.35085296108588,-21.5));
#561=CARTESIAN_POINT('',(11.,-6.35085296108588,-21.5));
#562=CARTESIAN_POINT('',(0.,-12.7017059221718,-21.5));
#563=CARTESIAN_POINT('',(0.,-12.7017059221718,-21.5));
#564=CARTESIAN_POINT('',(-11.,-6.35085296108588,-21.5));
#565=CARTESIAN_POINT('',(0.,0.,-21.5));
#566=CARTESIAN_POINT('',(0.,0.,-20.688));
#567=CARTESIAN_POINT('',(-8.188,0.,-20.688));
#568=CARTESIAN_POINT('',(0.,0.,-18.));
#569=CARTESIAN_POINT('',(0.,0.,-11.5));
#570=CARTESIAN_POINT('',(-8.188,0.,-11.5));
#571=CARTESIAN_POINT('',(-8.188,0.,-11.5));
#572=CARTESIAN_POINT('',(0.,0.,-11.5));
#573=CARTESIAN_POINT('',(-7.5,0.,-11.5));
#574=CARTESIAN_POINT('',(0.,0.,-11.5));
#575=CARTESIAN_POINT('',(0.,0.,-14.8));
#576=CARTESIAN_POINT('',(-6.79856334648893,0.,-14.8));
#577=CARTESIAN_POINT('',(-6.79856334648893,0.,-14.8));
#578=CARTESIAN_POINT('',(0.,0.,-14.8));
#579=CARTESIAN_POINT('',(-6.04856334648893,0.,-14.8));
#580=CARTESIAN_POINT('',(0.,0.,-15.55));
#581=CARTESIAN_POINT('',(0.,0.,-16.3));
#582=CARTESIAN_POINT('',(-6.04856334648893,0.,-16.3));
#583=CARTESIAN_POINT('',(-6.04856334648893,0.,-16.3));
#584=CARTESIAN_POINT('',(0.,0.,-16.3));
#585=CARTESIAN_POINT('',(-6.47972850398389,0.,-16.3));
#586=CARTESIAN_POINT('',(0.,0.,-16.3));
#587=CARTESIAN_POINT('',(0.,0.,-18.));
#588=CARTESIAN_POINT('',(-6.11838234914486,0.,-18.));
#589=CARTESIAN_POINT('',(-6.11838234914486,0.,-18.));
#590=CARTESIAN_POINT('',(-11.,6.35085296108588,-21.5));
#591=CARTESIAN_POINT('',(-11.,6.35085296108588,-3.5));
#592=CARTESIAN_POINT('',(-11.,6.35085296108588,-3.5));
#593=CARTESIAN_POINT('',(-11.,-6.35085296108588,-3.5));
#594=CARTESIAN_POINT('',(-11.,6.35085296108588,-21.5));
#595=CARTESIAN_POINT('',(-11.,-6.35085296108588,-21.5));
#596=CARTESIAN_POINT('',(0.,12.7017059221718,-21.5));
#597=CARTESIAN_POINT('',(0.,12.7017059221718,-3.5));
#598=CARTESIAN_POINT('',(0.,12.7017059221718,-3.5));
#599=CARTESIAN_POINT('',(0.,12.7017059221718,-21.5));
#600=CARTESIAN_POINT('',(11.,6.35085296108588,-21.5));
#601=CARTESIAN_POINT('',(11.,6.35085296108588,-3.5));
#602=CARTESIAN_POINT('',(11.,6.35085296108588,-3.5));
#603=CARTESIAN_POINT('',(11.,6.35085296108588,-21.5));
#604=CARTESIAN_POINT('',(11.,-6.35085296108588,-21.5));
#605=CARTESIAN_POINT('',(11.,-6.35085296108588,-3.5));
#606=CARTESIAN_POINT('',(11.,-6.35085296108588,-3.5));
#607=CARTESIAN_POINT('',(11.,-6.35085296108588,-21.5));
#608=CARTESIAN_POINT('',(0.,-12.7017059221718,-21.5));
#609=CARTESIAN_POINT('',(0.,-12.7017059221718,-3.5));
#610=CARTESIAN_POINT('',(-8.67361737988403E-16,-12.7017059221718,-3.5));
#611=CARTESIAN_POINT('',(0.,-12.7017059221718,-21.5));
#612=CARTESIAN_POINT('',(-11.,-6.35085296108588,-21.5));
#613=CARTESIAN_POINT('',(-11.,-6.35085296108588,-3.5));
#614=CARTESIAN_POINT('',(0.,0.,0.));
#615=CARTESIAN_POINT('',(0.,0.,0.));
#616=CARTESIAN_POINT('',(-4.42264973081037,0.,0.));
#617=CARTESIAN_POINT('',(0.,0.,0.));
#618=CARTESIAN_POINT('',(0.,0.,-1.));
#619=CARTESIAN_POINT('',(-5.,0.,-1.));
#620=CARTESIAN_POINT('',(0.,0.,-18.));
#621=CARTESIAN_POINT('',(0.,0.,-3.5));
#622=CARTESIAN_POINT('',(-5.,0.,-3.5));
#623=CARTESIAN_POINT('',(-5.,0.,-3.5));
#624=MECHANICAL_DESIGN_GEOMETRIC_PRESENTATION_REPRESENTATION('',(#267,#268,
#269,#270,#271,#272,#273,#274,#275,#276,#277,#278,#279,#280,#281,#282,#283,
#284,#285,#286),#625);
#625=(
GEOMETRIC_REPRESENTATION_CONTEXT(3)
GLOBAL_UNCERTAINTY_ASSIGNED_CONTEXT((#626))
GLOBAL_UNIT_ASSIGNED_CONTEXT((#629,#628,#627))
REPRESENTATION_CONTEXT('Verschlusskegel VKM 10-01',
'TOP_LEVEL_ASSEMBLY_PART')
);
#626=UNCERTAINTY_MEASURE_WITH_UNIT(LENGTH_MEASURE(0.005),#629,
'DISTANCE_ACCURACY_VALUE','Maximum Tolerance applied to model');
#627=(
NAMED_UNIT(*)
SI_UNIT($,.STERADIAN.)
SOLID_ANGLE_UNIT()
);
#628=(
NAMED_UNIT(*)
PLANE_ANGLE_UNIT()
SI_UNIT($,.RADIAN.)
);
#629=(
LENGTH_UNIT()
NAMED_UNIT(*)
SI_UNIT(.MILLI.,.METRE.)
);
#630=PRODUCT_DEFINITION_SHAPE('','',#631);
#631=PRODUCT_DEFINITION('','',#633,#632);
#632=DESIGN_CONTEXT('',#639,'design');
#633=PRODUCT_DEFINITION_FORMATION_WITH_SPECIFIED_SOURCE('','',#635,
 .NOT_KNOWN.);
#634=PRODUCT_RELATED_PRODUCT_CATEGORY('','',(#635));
#635=PRODUCT('Verschlusskegel VKM 10-01','Verschlusskegel VKM 10-01',
'Verschlusskegel VKM 10-01',(#637));
#636=PRODUCT_CATEGORY('','');
#637=MECHANICAL_CONTEXT('',#639,'mechanical');
#638=APPLICATION_PROTOCOL_DEFINITION('international standard',
'config_control_design',2010,#639);
#639=APPLICATION_CONTEXT(
'configuration controlled 3D designs of mechanical parts and assemblie
s');
ENDSEC;
END-ISO-10303-21;
