ISO-10303-21;
HEADER;
/* Generated by software containing ST-Developer
 * from STEP Tools, Inc. (www.steptools.com) 
 */
/* OPTION: using custom renumber hook */

FILE_DESCRIPTION(
/* description */ ('STEP AP203'),
/* implementation_level */ '2;1');

FILE_NAME(
/* name */ 'Bulkhead Union GESV 15-01',
/* time_stamp */ '2025-01-17T08:28:43+01:00',
/* author */ ('License CC BY-ND 4.0'),
/* organization */ ('CADENAS'),
/* preprocessor_version */ 'ST-DEVELOPER v19.3',
/* originating_system */ 'PARTsolutions',
/* authorisation */ '  ');

FILE_SCHEMA (('CONFIG_CONTROL_DESIGN'));
ENDSEC;

DATA;
#10=PROPERTY_DEFINITION_REPRESENTATION(#14,#12);
#11=PROPERTY_DEFINITION_REPRESENTATION(#15,#13);
#12=REPRESENTATION('',(#16),#437);
#13=REPRESENTATION('',(#17),#437);
#14=PROPERTY_DEFINITION('pmi validation property','',#442);
#15=PROPERTY_DEFINITION('pmi validation property','',#442);
#16=VALUE_REPRESENTATION_ITEM('number of annotations',COUNT_MEASURE(0.));
#17=VALUE_REPRESENTATION_ITEM('number of views',COUNT_MEASURE(0.));
#18=SHAPE_REPRESENTATION_RELATIONSHIP('','',#251,#19);
#19=ADVANCED_BREP_SHAPE_REPRESENTATION('',(#249),#437);
#20=CYLINDRICAL_SURFACE('',#258,7.5);
#21=CYLINDRICAL_SURFACE('',#262,6.00000000000001);
#22=CYLINDRICAL_SURFACE('',#266,7.5);
#23=CYLINDRICAL_SURFACE('',#274,11.);
#24=CYLINDRICAL_SURFACE('',#278,10.08);
#25=CYLINDRICAL_SURFACE('',#282,14.);
#26=CYLINDRICAL_SURFACE('',#286,10.08);
#27=CYLINDRICAL_SURFACE('',#290,11.);
#28=CONICAL_SURFACE('',#256,8.65,0.209439510239319);
#29=CONICAL_SURFACE('',#268,7.5,0.20943951023932);
#30=CONICAL_SURFACE('',#272,10.08,0.785398163397446);
#31=CONICAL_SURFACE('',#276,11.,0.785398163397446);
#32=CONICAL_SURFACE('',#288,10.08,0.785398163397453);
#33=CONICAL_SURFACE('',#292,11.,0.785398163397446);
#34=ORIENTED_EDGE('',*,*,#74,.T.);
#35=ORIENTED_EDGE('',*,*,#75,.F.);
#36=ORIENTED_EDGE('',*,*,#76,.T.);
#37=ORIENTED_EDGE('',*,*,#74,.F.);
#38=ORIENTED_EDGE('',*,*,#77,.T.);
#39=ORIENTED_EDGE('',*,*,#76,.F.);
#40=ORIENTED_EDGE('',*,*,#78,.T.);
#41=ORIENTED_EDGE('',*,*,#77,.F.);
#42=ORIENTED_EDGE('',*,*,#79,.T.);
#43=ORIENTED_EDGE('',*,*,#78,.F.);
#44=ORIENTED_EDGE('',*,*,#80,.T.);
#45=ORIENTED_EDGE('',*,*,#79,.F.);
#46=ORIENTED_EDGE('',*,*,#81,.T.);
#47=ORIENTED_EDGE('',*,*,#80,.F.);
#48=ORIENTED_EDGE('',*,*,#82,.T.);
#49=ORIENTED_EDGE('',*,*,#81,.F.);
#50=ORIENTED_EDGE('',*,*,#83,.T.);
#51=ORIENTED_EDGE('',*,*,#82,.F.);
#52=ORIENTED_EDGE('',*,*,#84,.T.);
#53=ORIENTED_EDGE('',*,*,#83,.F.);
#54=ORIENTED_EDGE('',*,*,#85,.T.);
#55=ORIENTED_EDGE('',*,*,#84,.F.);
#56=ORIENTED_EDGE('',*,*,#86,.T.);
#57=ORIENTED_EDGE('',*,*,#85,.F.);
#58=ORIENTED_EDGE('',*,*,#87,.T.);
#59=ORIENTED_EDGE('',*,*,#86,.F.);
#60=ORIENTED_EDGE('',*,*,#88,.T.);
#61=ORIENTED_EDGE('',*,*,#87,.F.);
#62=ORIENTED_EDGE('',*,*,#89,.T.);
#63=ORIENTED_EDGE('',*,*,#88,.F.);
#64=ORIENTED_EDGE('',*,*,#90,.T.);
#65=ORIENTED_EDGE('',*,*,#89,.F.);
#66=ORIENTED_EDGE('',*,*,#91,.T.);
#67=ORIENTED_EDGE('',*,*,#90,.F.);
#68=ORIENTED_EDGE('',*,*,#92,.T.);
#69=ORIENTED_EDGE('',*,*,#91,.F.);
#70=ORIENTED_EDGE('',*,*,#93,.T.);
#71=ORIENTED_EDGE('',*,*,#92,.F.);
#72=ORIENTED_EDGE('',*,*,#75,.T.);
#73=ORIENTED_EDGE('',*,*,#93,.F.);
#74=EDGE_CURVE('',#94,#94,#114,.T.);
#75=EDGE_CURVE('',#95,#95,#115,.T.);
#76=EDGE_CURVE('',#96,#96,#116,.T.);
#77=EDGE_CURVE('',#97,#97,#117,.T.);
#78=EDGE_CURVE('',#98,#98,#118,.T.);
#79=EDGE_CURVE('',#99,#99,#119,.T.);
#80=EDGE_CURVE('',#100,#100,#120,.T.);
#81=EDGE_CURVE('',#101,#101,#121,.T.);
#82=EDGE_CURVE('',#102,#102,#122,.T.);
#83=EDGE_CURVE('',#103,#103,#123,.T.);
#84=EDGE_CURVE('',#104,#104,#124,.T.);
#85=EDGE_CURVE('',#105,#105,#125,.T.);
#86=EDGE_CURVE('',#106,#106,#126,.T.);
#87=EDGE_CURVE('',#107,#107,#127,.T.);
#88=EDGE_CURVE('',#108,#108,#128,.T.);
#89=EDGE_CURVE('',#109,#109,#129,.T.);
#90=EDGE_CURVE('',#110,#110,#130,.T.);
#91=EDGE_CURVE('',#111,#111,#131,.T.);
#92=EDGE_CURVE('',#112,#112,#132,.T.);
#93=EDGE_CURVE('',#113,#113,#133,.T.);
#94=VERTEX_POINT('',#378);
#95=VERTEX_POINT('',#380);
#96=VERTEX_POINT('',#383);
#97=VERTEX_POINT('',#386);
#98=VERTEX_POINT('',#389);
#99=VERTEX_POINT('',#392);
#100=VERTEX_POINT('',#395);
#101=VERTEX_POINT('',#398);
#102=VERTEX_POINT('',#401);
#103=VERTEX_POINT('',#404);
#104=VERTEX_POINT('',#407);
#105=VERTEX_POINT('',#410);
#106=VERTEX_POINT('',#413);
#107=VERTEX_POINT('',#416);
#108=VERTEX_POINT('',#419);
#109=VERTEX_POINT('',#422);
#110=VERTEX_POINT('',#425);
#111=VERTEX_POINT('',#428);
#112=VERTEX_POINT('',#431);
#113=VERTEX_POINT('',#434);
#114=CIRCLE('',#254,8.65);
#115=CIRCLE('',#255,10.08);
#116=CIRCLE('',#257,7.5);
#117=CIRCLE('',#259,7.5);
#118=CIRCLE('',#261,6.00000000000001);
#119=CIRCLE('',#263,6.00000000000001);
#120=CIRCLE('',#265,7.5);
#121=CIRCLE('',#267,7.5);
#122=CIRCLE('',#269,8.65);
#123=CIRCLE('',#271,10.08);
#124=CIRCLE('',#273,11.);
#125=CIRCLE('',#275,11.);
#126=CIRCLE('',#277,10.08);
#127=CIRCLE('',#279,10.08);
#128=CIRCLE('',#281,14.);
#129=CIRCLE('',#283,14.);
#130=CIRCLE('',#285,10.08);
#131=CIRCLE('',#287,10.08);
#132=CIRCLE('',#289,11.);
#133=CIRCLE('',#291,11.);
#134=EDGE_LOOP('',(#34));
#135=EDGE_LOOP('',(#35));
#136=EDGE_LOOP('',(#36));
#137=EDGE_LOOP('',(#37));
#138=EDGE_LOOP('',(#38));
#139=EDGE_LOOP('',(#39));
#140=EDGE_LOOP('',(#40));
#141=EDGE_LOOP('',(#41));
#142=EDGE_LOOP('',(#42));
#143=EDGE_LOOP('',(#43));
#144=EDGE_LOOP('',(#44));
#145=EDGE_LOOP('',(#45));
#146=EDGE_LOOP('',(#46));
#147=EDGE_LOOP('',(#47));
#148=EDGE_LOOP('',(#48));
#149=EDGE_LOOP('',(#49));
#150=EDGE_LOOP('',(#50));
#151=EDGE_LOOP('',(#51));
#152=EDGE_LOOP('',(#52));
#153=EDGE_LOOP('',(#53));
#154=EDGE_LOOP('',(#54));
#155=EDGE_LOOP('',(#55));
#156=EDGE_LOOP('',(#56));
#157=EDGE_LOOP('',(#57));
#158=EDGE_LOOP('',(#58));
#159=EDGE_LOOP('',(#59));
#160=EDGE_LOOP('',(#60));
#161=EDGE_LOOP('',(#61));
#162=EDGE_LOOP('',(#62));
#163=EDGE_LOOP('',(#63));
#164=EDGE_LOOP('',(#64));
#165=EDGE_LOOP('',(#65));
#166=EDGE_LOOP('',(#66));
#167=EDGE_LOOP('',(#67));
#168=EDGE_LOOP('',(#68));
#169=EDGE_LOOP('',(#69));
#170=EDGE_LOOP('',(#70));
#171=EDGE_LOOP('',(#71));
#172=EDGE_LOOP('',(#72));
#173=EDGE_LOOP('',(#73));
#174=FACE_BOUND('',#134,.T.);
#175=FACE_BOUND('',#135,.T.);
#176=FACE_BOUND('',#136,.T.);
#177=FACE_BOUND('',#137,.T.);
#178=FACE_BOUND('',#138,.T.);
#179=FACE_BOUND('',#139,.T.);
#180=FACE_BOUND('',#140,.T.);
#181=FACE_BOUND('',#141,.T.);
#182=FACE_BOUND('',#142,.T.);
#183=FACE_BOUND('',#143,.T.);
#184=FACE_BOUND('',#144,.T.);
#185=FACE_BOUND('',#145,.T.);
#186=FACE_BOUND('',#146,.T.);
#187=FACE_BOUND('',#147,.T.);
#188=FACE_BOUND('',#148,.T.);
#189=FACE_BOUND('',#149,.T.);
#190=FACE_BOUND('',#150,.T.);
#191=FACE_BOUND('',#151,.T.);
#192=FACE_BOUND('',#152,.T.);
#193=FACE_BOUND('',#153,.T.);
#194=FACE_BOUND('',#154,.T.);
#195=FACE_BOUND('',#155,.T.);
#196=FACE_BOUND('',#156,.T.);
#197=FACE_BOUND('',#157,.T.);
#198=FACE_BOUND('',#158,.T.);
#199=FACE_BOUND('',#159,.T.);
#200=FACE_BOUND('',#160,.T.);
#201=FACE_BOUND('',#161,.T.);
#202=FACE_BOUND('',#162,.T.);
#203=FACE_BOUND('',#163,.T.);
#204=FACE_BOUND('',#164,.T.);
#205=FACE_BOUND('',#165,.T.);
#206=FACE_BOUND('',#166,.T.);
#207=FACE_BOUND('',#167,.T.);
#208=FACE_BOUND('',#168,.T.);
#209=FACE_BOUND('',#169,.T.);
#210=FACE_BOUND('',#170,.T.);
#211=FACE_BOUND('',#171,.T.);
#212=FACE_BOUND('',#172,.T.);
#213=FACE_BOUND('',#173,.T.);
#214=PLANE('',#253);
#215=PLANE('',#260);
#216=PLANE('',#264);
#217=PLANE('',#270);
#218=PLANE('',#280);
#219=PLANE('',#284);
#220=ADVANCED_FACE('',(#174,#175),#214,.T.);
#221=ADVANCED_FACE('',(#176,#177),#28,.F.);
#222=ADVANCED_FACE('',(#178,#179),#20,.F.);
#223=ADVANCED_FACE('',(#180,#181),#215,.T.);
#224=ADVANCED_FACE('',(#182,#183),#21,.F.);
#225=ADVANCED_FACE('',(#184,#185),#216,.T.);
#226=ADVANCED_FACE('',(#186,#187),#22,.F.);
#227=ADVANCED_FACE('',(#188,#189),#29,.F.);
#228=ADVANCED_FACE('',(#190,#191),#217,.T.);
#229=ADVANCED_FACE('',(#192,#193),#30,.T.);
#230=ADVANCED_FACE('',(#194,#195),#23,.T.);
#231=ADVANCED_FACE('',(#196,#197),#31,.T.);
#232=ADVANCED_FACE('',(#198,#199),#24,.T.);
#233=ADVANCED_FACE('',(#200,#201),#218,.T.);
#234=ADVANCED_FACE('',(#202,#203),#25,.T.);
#235=ADVANCED_FACE('',(#204,#205),#219,.T.);
#236=ADVANCED_FACE('',(#206,#207),#26,.T.);
#237=ADVANCED_FACE('',(#208,#209),#32,.T.);
#238=ADVANCED_FACE('',(#210,#211),#27,.T.);
#239=ADVANCED_FACE('',(#212,#213),#33,.T.);
#240=CLOSED_SHELL('',(#220,#221,#222,#223,#224,#225,#226,#227,#228,#229,
#230,#231,#232,#233,#234,#235,#236,#237,#238,#239));
#241=STYLED_ITEM('',(#242),#249);
#242=PRESENTATION_STYLE_ASSIGNMENT((#243));
#243=SURFACE_STYLE_USAGE(.BOTH.,#244);
#244=SURFACE_SIDE_STYLE('',(#245));
#245=SURFACE_STYLE_FILL_AREA(#246);
#246=FILL_AREA_STYLE('',(#247));
#247=FILL_AREA_STYLE_COLOUR('',#248);
#248=COLOUR_RGB('',0.689999997615814,0.689999997615814,0.689999997615814);
#249=MANIFOLD_SOLID_BREP('Schottstutzen GESV 15-01',#240);
#250=SHAPE_DEFINITION_REPRESENTATION(#442,#251);
#251=SHAPE_REPRESENTATION('Schottstutzen GESV 15-01',(#252),#437);
#252=AXIS2_PLACEMENT_3D('',#375,#293,#294);
#253=AXIS2_PLACEMENT_3D('',#376,#295,#296);
#254=AXIS2_PLACEMENT_3D('',#377,#297,#298);
#255=AXIS2_PLACEMENT_3D('',#379,#299,#300);
#256=AXIS2_PLACEMENT_3D('',#381,#301,#302);
#257=AXIS2_PLACEMENT_3D('',#382,#303,#304);
#258=AXIS2_PLACEMENT_3D('',#384,#305,#306);
#259=AXIS2_PLACEMENT_3D('',#385,#307,#308);
#260=AXIS2_PLACEMENT_3D('',#387,#309,#310);
#261=AXIS2_PLACEMENT_3D('',#388,#311,#312);
#262=AXIS2_PLACEMENT_3D('',#390,#313,#314);
#263=AXIS2_PLACEMENT_3D('',#391,#315,#316);
#264=AXIS2_PLACEMENT_3D('',#393,#317,#318);
#265=AXIS2_PLACEMENT_3D('',#394,#319,#320);
#266=AXIS2_PLACEMENT_3D('',#396,#321,#322);
#267=AXIS2_PLACEMENT_3D('',#397,#323,#324);
#268=AXIS2_PLACEMENT_3D('',#399,#325,#326);
#269=AXIS2_PLACEMENT_3D('',#400,#327,#328);
#270=AXIS2_PLACEMENT_3D('',#402,#329,#330);
#271=AXIS2_PLACEMENT_3D('',#403,#331,#332);
#272=AXIS2_PLACEMENT_3D('',#405,#333,#334);
#273=AXIS2_PLACEMENT_3D('',#406,#335,#336);
#274=AXIS2_PLACEMENT_3D('',#408,#337,#338);
#275=AXIS2_PLACEMENT_3D('',#409,#339,#340);
#276=AXIS2_PLACEMENT_3D('',#411,#341,#342);
#277=AXIS2_PLACEMENT_3D('',#412,#343,#344);
#278=AXIS2_PLACEMENT_3D('',#414,#345,#346);
#279=AXIS2_PLACEMENT_3D('',#415,#347,#348);
#280=AXIS2_PLACEMENT_3D('',#417,#349,#350);
#281=AXIS2_PLACEMENT_3D('',#418,#351,#352);
#282=AXIS2_PLACEMENT_3D('',#420,#353,#354);
#283=AXIS2_PLACEMENT_3D('',#421,#355,#356);
#284=AXIS2_PLACEMENT_3D('',#423,#357,#358);
#285=AXIS2_PLACEMENT_3D('',#424,#359,#360);
#286=AXIS2_PLACEMENT_3D('',#426,#361,#362);
#287=AXIS2_PLACEMENT_3D('',#427,#363,#364);
#288=AXIS2_PLACEMENT_3D('',#429,#365,#366);
#289=AXIS2_PLACEMENT_3D('',#430,#367,#368);
#290=AXIS2_PLACEMENT_3D('',#432,#369,#370);
#291=AXIS2_PLACEMENT_3D('',#433,#371,#372);
#292=AXIS2_PLACEMENT_3D('',#435,#373,#374);
#293=DIRECTION('',(0.,0.,1.));
#294=DIRECTION('',(1.,0.,0.));
#295=DIRECTION('',(0.,0.,1.));
#296=DIRECTION('',(1.,0.,0.));
#297=DIRECTION('',(0.,0.,-1.));
#298=DIRECTION('',(-1.,0.,0.));
#299=DIRECTION('',(0.,0.,-1.));
#300=DIRECTION('',(-1.,0.,0.));
#301=DIRECTION('',(0.,0.,1.));
#302=DIRECTION('',(1.,0.,0.));
#303=DIRECTION('',(0.,0.,-1.));
#304=DIRECTION('',(-1.,0.,0.));
#305=DIRECTION('',(0.,0.,-1.));
#306=DIRECTION('',(-1.,0.,0.));
#307=DIRECTION('',(0.,0.,-1.));
#308=DIRECTION('',(-1.,0.,0.));
#309=DIRECTION('',(0.,0.,1.));
#310=DIRECTION('',(1.,0.,0.));
#311=DIRECTION('',(0.,0.,-1.));
#312=DIRECTION('',(-1.,0.,0.));
#313=DIRECTION('',(0.,0.,-1.));
#314=DIRECTION('',(-1.,0.,0.));
#315=DIRECTION('',(0.,0.,-1.));
#316=DIRECTION('',(-1.,0.,0.));
#317=DIRECTION('',(0.,0.,-1.));
#318=DIRECTION('',(-1.,0.,0.));
#319=DIRECTION('',(0.,0.,-1.));
#320=DIRECTION('',(-1.,0.,0.));
#321=DIRECTION('',(0.,0.,-1.));
#322=DIRECTION('',(-1.,0.,0.));
#323=DIRECTION('',(0.,0.,-1.));
#324=DIRECTION('',(-1.,0.,0.));
#325=DIRECTION('',(0.,0.,-1.));
#326=DIRECTION('',(-1.,0.,0.));
#327=DIRECTION('',(0.,0.,-1.));
#328=DIRECTION('',(-1.,0.,0.));
#329=DIRECTION('',(0.,0.,-1.));
#330=DIRECTION('',(-1.,0.,0.));
#331=DIRECTION('',(0.,0.,-1.));
#332=DIRECTION('',(-1.,0.,0.));
#333=DIRECTION('',(0.,0.,1.));
#334=DIRECTION('',(1.,0.,0.));
#335=DIRECTION('',(0.,0.,-1.));
#336=DIRECTION('',(-1.,0.,0.));
#337=DIRECTION('',(0.,0.,-1.));
#338=DIRECTION('',(-1.,0.,0.));
#339=DIRECTION('',(0.,0.,-1.));
#340=DIRECTION('',(-1.,0.,0.));
#341=DIRECTION('',(0.,0.,-1.));
#342=DIRECTION('',(-1.,0.,0.));
#343=DIRECTION('',(0.,0.,-1.));
#344=DIRECTION('',(-1.,0.,0.));
#345=DIRECTION('',(0.,0.,-1.));
#346=DIRECTION('',(-1.,0.,0.));
#347=DIRECTION('',(0.,0.,-1.));
#348=DIRECTION('',(-1.,0.,0.));
#349=DIRECTION('',(0.,0.,-1.));
#350=DIRECTION('',(-1.,0.,0.));
#351=DIRECTION('',(0.,0.,-1.));
#352=DIRECTION('',(-1.,0.,0.));
#353=DIRECTION('',(0.,0.,-1.));
#354=DIRECTION('',(-1.,0.,0.));
#355=DIRECTION('',(0.,0.,-1.));
#356=DIRECTION('',(-1.,0.,0.));
#357=DIRECTION('',(0.,0.,1.));
#358=DIRECTION('',(1.,0.,0.));
#359=DIRECTION('',(0.,0.,-1.));
#360=DIRECTION('',(-1.,0.,0.));
#361=DIRECTION('',(0.,0.,-1.));
#362=DIRECTION('',(-1.,0.,0.));
#363=DIRECTION('',(0.,0.,-1.));
#364=DIRECTION('',(-1.,0.,0.));
#365=DIRECTION('',(0.,0.,1.));
#366=DIRECTION('',(1.,0.,0.));
#367=DIRECTION('',(0.,0.,-1.));
#368=DIRECTION('',(-1.,0.,0.));
#369=DIRECTION('',(0.,0.,-1.));
#370=DIRECTION('',(-1.,0.,0.));
#371=DIRECTION('',(0.,0.,-1.));
#372=DIRECTION('',(-1.,0.,0.));
#373=DIRECTION('',(0.,0.,-1.));
#374=DIRECTION('',(-1.,0.,0.));
#375=CARTESIAN_POINT('',(0.,0.,0.));
#376=CARTESIAN_POINT('',(0.,10.08,7.));
#377=CARTESIAN_POINT('',(0.,0.,7.00000000000001));
#378=CARTESIAN_POINT('',(-8.65,0.,7.00000000000001));
#379=CARTESIAN_POINT('',(0.,0.,7.00000000000001));
#380=CARTESIAN_POINT('',(-10.08,0.,7.00000000000001));
#381=CARTESIAN_POINT('',(0.,0.,7.00000000000001));
#382=CARTESIAN_POINT('',(0.,0.,1.58967537409978));
#383=CARTESIAN_POINT('',(-7.5,0.,1.58967537409978));
#384=CARTESIAN_POINT('',(0.,0.,-77.));
#385=CARTESIAN_POINT('',(0.,0.,0.));
#386=CARTESIAN_POINT('',(-7.5,0.,0.));
#387=CARTESIAN_POINT('',(0.,7.5,0.));
#388=CARTESIAN_POINT('',(0.,0.,0.));
#389=CARTESIAN_POINT('',(-6.00000000000001,0.,0.));
#390=CARTESIAN_POINT('',(0.,0.,-77.));
#391=CARTESIAN_POINT('',(0.,0.,-70.));
#392=CARTESIAN_POINT('',(-6.00000000000001,0.,-70.));
#393=CARTESIAN_POINT('',(0.,6.00000000000001,-70.));
#394=CARTESIAN_POINT('',(0.,0.,-70.));
#395=CARTESIAN_POINT('',(-7.5,0.,-70.));
#396=CARTESIAN_POINT('',(0.,0.,-77.));
#397=CARTESIAN_POINT('',(0.,0.,-71.5896753740998));
#398=CARTESIAN_POINT('',(-7.5,0.,-71.5896753740998));
#399=CARTESIAN_POINT('',(0.,0.,-71.5896753740998));
#400=CARTESIAN_POINT('',(0.,0.,-77.));
#401=CARTESIAN_POINT('',(-8.65,0.,-77.));
#402=CARTESIAN_POINT('',(0.,8.65,-77.));
#403=CARTESIAN_POINT('',(0.,0.,-77.));
#404=CARTESIAN_POINT('',(-10.08,0.,-77.));
#405=CARTESIAN_POINT('',(0.,0.,-77.));
#406=CARTESIAN_POINT('',(0.,0.,-76.08));
#407=CARTESIAN_POINT('',(-11.,0.,-76.08));
#408=CARTESIAN_POINT('',(0.,0.,-77.));
#409=CARTESIAN_POINT('',(0.,0.,-68.42));
#410=CARTESIAN_POINT('',(-11.,0.,-68.42));
#411=CARTESIAN_POINT('',(0.,0.,-68.42));
#412=CARTESIAN_POINT('',(0.,0.,-67.5));
#413=CARTESIAN_POINT('',(-10.08,0.,-67.5));
#414=CARTESIAN_POINT('',(0.,0.,-77.));
#415=CARTESIAN_POINT('',(0.,0.,-65.));
#416=CARTESIAN_POINT('',(-10.08,0.,-65.));
#417=CARTESIAN_POINT('',(0.,10.08,-65.));
#418=CARTESIAN_POINT('',(0.,0.,-65.));
#419=CARTESIAN_POINT('',(-14.,0.,-65.));
#420=CARTESIAN_POINT('',(0.,0.,-77.));
#421=CARTESIAN_POINT('',(0.,0.,-5.));
#422=CARTESIAN_POINT('',(-14.,0.,-5.));
#423=CARTESIAN_POINT('',(0.,14.,-5.));
#424=CARTESIAN_POINT('',(0.,0.,-5.));
#425=CARTESIAN_POINT('',(-10.08,0.,-5.));
#426=CARTESIAN_POINT('',(0.,0.,-77.));
#427=CARTESIAN_POINT('',(0.,0.,-2.5));
#428=CARTESIAN_POINT('',(-10.08,0.,-2.5));
#429=CARTESIAN_POINT('',(0.,0.,-2.5));
#430=CARTESIAN_POINT('',(0.,0.,-1.58000000000001));
#431=CARTESIAN_POINT('',(-11.,0.,-1.58000000000001));
#432=CARTESIAN_POINT('',(0.,0.,-77.));
#433=CARTESIAN_POINT('',(0.,0.,6.08));
#434=CARTESIAN_POINT('',(-11.,0.,6.08));
#435=CARTESIAN_POINT('',(0.,0.,6.08));
#436=MECHANICAL_DESIGN_GEOMETRIC_PRESENTATION_REPRESENTATION('',(#241),
#437);
#437=(
GEOMETRIC_REPRESENTATION_CONTEXT(3)
GLOBAL_UNCERTAINTY_ASSIGNED_CONTEXT((#438))
GLOBAL_UNIT_ASSIGNED_CONTEXT((#441,#440,#439))
REPRESENTATION_CONTEXT('Schottstutzen GESV 15-01',
'TOP_LEVEL_ASSEMBLY_PART')
);
#438=UNCERTAINTY_MEASURE_WITH_UNIT(LENGTH_MEASURE(0.005),#441,
'DISTANCE_ACCURACY_VALUE','Maximum Tolerance applied to model');
#439=(
NAMED_UNIT(*)
SI_UNIT($,.STERADIAN.)
SOLID_ANGLE_UNIT()
);
#440=(
NAMED_UNIT(*)
PLANE_ANGLE_UNIT()
SI_UNIT($,.RADIAN.)
);
#441=(
LENGTH_UNIT()
NAMED_UNIT(*)
SI_UNIT(.MILLI.,.METRE.)
);
#442=PRODUCT_DEFINITION_SHAPE('','',#443);
#443=PRODUCT_DEFINITION('','',#445,#444);
#444=DESIGN_CONTEXT('',#451,'design');
#445=PRODUCT_DEFINITION_FORMATION_WITH_SPECIFIED_SOURCE('','',#447,
 .NOT_KNOWN.);
#446=PRODUCT_RELATED_PRODUCT_CATEGORY('','',(#447));
#447=PRODUCT('Schottstutzen GESV 15-01','Schottstutzen GESV 15-01',
'Schottstutzen GESV 15-01',(#449));
#448=PRODUCT_CATEGORY('','');
#449=MECHANICAL_CONTEXT('',#451,'mechanical');
#450=APPLICATION_PROTOCOL_DEFINITION('international standard',
'config_control_design',2010,#451);
#451=APPLICATION_CONTEXT(
'configuration controlled 3D designs of mechanical parts and assemblie
s');
ENDSEC;
END-ISO-10303-21;
