ISO-10303-21;
HEADER;
/* Generated by software containing ST-Developer
 * from STEP Tools, Inc. (www.steptools.com) 
 */
/* OPTION: using custom schema-name function */

FILE_DESCRIPTION(
/* description */ (''),
/* implementation_level */ '2;1');

FILE_NAME(
/* name */ 'X-KOR1621215.stp',
/* time_stamp */ '2023-05-02T10:47:23+02:00',
/* author */ (''),
/* organization */ (''),
/* preprocessor_version */ 'ST-DEVELOPER v16',
/* originating_system */ 'SIEMENS PLM Software NX 10.0',
/* authorisation */ '');

FILE_SCHEMA (('AUTOMOTIVE_DESIGN { 1 0 10303 214 3 1 1 1 }'));
ENDSEC;

DATA;
#10=SHAPE_REPRESENTATION_RELATIONSHIP('None',
'relationship between X-KOR-None and X-KOR-None',#22,#11);
#11=ADVANCED_BREP_SHAPE_REPRESENTATION('X-KOR-None',(#32),#339);
#12=SHAPE_DEFINITION_REPRESENTATION(#13,#22);
#13=PRODUCT_DEFINITION_SHAPE('','',#14);
#14=PRODUCT_DEFINITION(' ','',#16,#15);
#15=PRODUCT_DEFINITION_CONTEXT('part definition',#21,'design');
#16=PRODUCT_DEFINITION_FORMATION_WITH_SPECIFIED_SOURCE(' ',' ',#18,
 .NOT_KNOWN.);
#17=PRODUCT_RELATED_PRODUCT_CATEGORY('part','',(#18));
#18=PRODUCT('X-KOR','X-KOR',' ',(#19));
#19=PRODUCT_CONTEXT(' ',#21,'mechanical');
#20=APPLICATION_PROTOCOL_DEFINITION('international standard',
'automotive_design',2010,#21);
#21=APPLICATION_CONTEXT(
'core data for automotive mechanical design processes');
#22=SHAPE_REPRESENTATION('X-KOR-None',(#199),#339);
#23=PRESENTATION_LAYER_ASSIGNMENT('1','Layer 1',(#32));
#24=STYLED_ITEM('',(#25),#32);
#25=PRESENTATION_STYLE_ASSIGNMENT((#26));
#26=SURFACE_STYLE_USAGE(.BOTH.,#27);
#27=SURFACE_SIDE_STYLE('',(#28));
#28=SURFACE_STYLE_FILL_AREA(#29);
#29=FILL_AREA_STYLE('',(#30));
#30=FILL_AREA_STYLE_COLOUR('',#31);
#31=COLOUR_RGB('Mittleres Stahlblau',0.596063172350652,0.666666666666667,
0.686259250782025);
#32=MANIFOLD_SOLID_BREP('',#33);
#33=CLOSED_SHELL('',(#47,#48,#49,#50,#51,#52,#53,#54,#55,#56,#57,#58,#59,
#60,#61));
#34=TOROIDAL_SURFACE('',#224,4.99999999999999,1.);
#35=TOROIDAL_SURFACE('',#225,6.99999999999999,1.);
#36=TOROIDAL_SURFACE('',#226,6.99999999999999,1.);
#37=TOROIDAL_SURFACE('',#227,6.99999999999999,1.);
#38=CYLINDRICAL_SURFACE('',#207,7.99999999999999);
#39=CYLINDRICAL_SURFACE('',#213,5.99999999999999);
#40=CYLINDRICAL_SURFACE('',#219,4.49999999999999);
#41=CYLINDRICAL_SURFACE('',#223,5.99999999999999);
#42=CONICAL_SURFACE('',#204,6.99999999999999,60.);
#43=CONICAL_SURFACE('',#210,7.99999999999999,8.74616226255519);
#44=CONICAL_SURFACE('',#221,4.49999999999999,8.53076560994813);
#45=CONICAL_SURFACE('',#228,4.79999999999999,44.9999999999998);
#46=CONICAL_SURFACE('',#229,5.99999999999999,45.);
#47=ADVANCED_FACE('',(#64,#65),#62,.T.);
#48=ADVANCED_FACE('',(#66,#67),#42,.T.);
#49=ADVANCED_FACE('',(#68,#69),#38,.T.);
#50=ADVANCED_FACE('',(#70,#71),#43,.T.);
#51=ADVANCED_FACE('',(#72,#73),#39,.T.);
#52=ADVANCED_FACE('',(#74,#75),#63,.T.);
#53=ADVANCED_FACE('',(#76,#77),#40,.F.);
#54=ADVANCED_FACE('',(#78,#79),#44,.F.);
#55=ADVANCED_FACE('',(#80,#81),#41,.F.);
#56=ADVANCED_FACE('',(#82,#83),#34,.T.);
#57=ADVANCED_FACE('',(#84,#85),#35,.F.);
#58=ADVANCED_FACE('',(#86,#87),#36,.T.);
#59=ADVANCED_FACE('',(#88,#89),#37,.T.);
#60=ADVANCED_FACE('',(#90,#91),#45,.F.);
#61=ADVANCED_FACE('',(#92,#93),#46,.F.);
#62=PLANE('',#202);
#63=PLANE('',#216);
#64=FACE_BOUND('',#94,.T.);
#65=FACE_BOUND('',#95,.T.);
#66=FACE_BOUND('',#96,.T.);
#67=FACE_BOUND('',#97,.T.);
#68=FACE_BOUND('',#98,.T.);
#69=FACE_BOUND('',#99,.T.);
#70=FACE_BOUND('',#100,.T.);
#71=FACE_BOUND('',#101,.T.);
#72=FACE_BOUND('',#102,.T.);
#73=FACE_BOUND('',#103,.T.);
#74=FACE_BOUND('',#104,.T.);
#75=FACE_BOUND('',#105,.T.);
#76=FACE_BOUND('',#106,.T.);
#77=FACE_BOUND('',#107,.T.);
#78=FACE_BOUND('',#108,.T.);
#79=FACE_BOUND('',#109,.T.);
#80=FACE_BOUND('',#110,.T.);
#81=FACE_BOUND('',#111,.T.);
#82=FACE_BOUND('',#112,.T.);
#83=FACE_BOUND('',#113,.T.);
#84=FACE_BOUND('',#114,.T.);
#85=FACE_BOUND('',#115,.T.);
#86=FACE_BOUND('',#116,.T.);
#87=FACE_BOUND('',#117,.T.);
#88=FACE_BOUND('',#118,.T.);
#89=FACE_BOUND('',#119,.T.);
#90=FACE_BOUND('',#120,.T.);
#91=FACE_BOUND('',#121,.T.);
#92=FACE_BOUND('',#122,.T.);
#93=FACE_BOUND('',#123,.T.);
#94=EDGE_LOOP('',(#124));
#95=EDGE_LOOP('',(#125));
#96=EDGE_LOOP('',(#126));
#97=EDGE_LOOP('',(#127));
#98=EDGE_LOOP('',(#128));
#99=EDGE_LOOP('',(#129));
#100=EDGE_LOOP('',(#130));
#101=EDGE_LOOP('',(#131));
#102=EDGE_LOOP('',(#132));
#103=EDGE_LOOP('',(#133));
#104=EDGE_LOOP('',(#134));
#105=EDGE_LOOP('',(#135));
#106=EDGE_LOOP('',(#136));
#107=EDGE_LOOP('',(#137));
#108=EDGE_LOOP('',(#138));
#109=EDGE_LOOP('',(#139));
#110=EDGE_LOOP('',(#140));
#111=EDGE_LOOP('',(#141));
#112=EDGE_LOOP('',(#142));
#113=EDGE_LOOP('',(#143));
#114=EDGE_LOOP('',(#144));
#115=EDGE_LOOP('',(#145));
#116=EDGE_LOOP('',(#146));
#117=EDGE_LOOP('',(#147));
#118=EDGE_LOOP('',(#148));
#119=EDGE_LOOP('',(#149));
#120=EDGE_LOOP('',(#150));
#121=EDGE_LOOP('',(#151));
#122=EDGE_LOOP('',(#152));
#123=EDGE_LOOP('',(#153));
#124=ORIENTED_EDGE('',*,*,#169,.T.);
#125=ORIENTED_EDGE('',*,*,#170,.T.);
#126=ORIENTED_EDGE('',*,*,#171,.T.);
#127=ORIENTED_EDGE('',*,*,#170,.F.);
#128=ORIENTED_EDGE('',*,*,#172,.T.);
#129=ORIENTED_EDGE('',*,*,#173,.T.);
#130=ORIENTED_EDGE('',*,*,#174,.T.);
#131=ORIENTED_EDGE('',*,*,#175,.T.);
#132=ORIENTED_EDGE('',*,*,#176,.T.);
#133=ORIENTED_EDGE('',*,*,#177,.T.);
#134=ORIENTED_EDGE('',*,*,#178,.T.);
#135=ORIENTED_EDGE('',*,*,#179,.F.);
#136=ORIENTED_EDGE('',*,*,#180,.T.);
#137=ORIENTED_EDGE('',*,*,#181,.T.);
#138=ORIENTED_EDGE('',*,*,#182,.T.);
#139=ORIENTED_EDGE('',*,*,#181,.F.);
#140=ORIENTED_EDGE('',*,*,#183,.T.);
#141=ORIENTED_EDGE('',*,*,#182,.F.);
#142=ORIENTED_EDGE('',*,*,#179,.T.);
#143=ORIENTED_EDGE('',*,*,#176,.F.);
#144=ORIENTED_EDGE('',*,*,#177,.F.);
#145=ORIENTED_EDGE('',*,*,#174,.F.);
#146=ORIENTED_EDGE('',*,*,#175,.F.);
#147=ORIENTED_EDGE('',*,*,#172,.F.);
#148=ORIENTED_EDGE('',*,*,#173,.F.);
#149=ORIENTED_EDGE('',*,*,#171,.F.);
#150=ORIENTED_EDGE('',*,*,#180,.F.);
#151=ORIENTED_EDGE('',*,*,#178,.F.);
#152=ORIENTED_EDGE('',*,*,#169,.F.);
#153=ORIENTED_EDGE('',*,*,#183,.F.);
#154=VERTEX_POINT('',#294);
#155=VERTEX_POINT('',#296);
#156=VERTEX_POINT('',#299);
#157=VERTEX_POINT('',#302);
#158=VERTEX_POINT('',#304);
#159=VERTEX_POINT('',#307);
#160=VERTEX_POINT('',#309);
#161=VERTEX_POINT('',#312);
#162=VERTEX_POINT('',#314);
#163=VERTEX_POINT('',#317);
#164=VERTEX_POINT('',#319);
#165=VERTEX_POINT('',#322);
#166=VERTEX_POINT('',#324);
#167=VERTEX_POINT('',#327);
#168=VERTEX_POINT('',#330);
#169=EDGE_CURVE('',#154,#154,#184,.T.);
#170=EDGE_CURVE('',#155,#155,#185,.T.);
#171=EDGE_CURVE('',#156,#156,#186,.T.);
#172=EDGE_CURVE('',#157,#157,#187,.T.);
#173=EDGE_CURVE('',#158,#158,#188,.T.);
#174=EDGE_CURVE('',#159,#159,#189,.T.);
#175=EDGE_CURVE('',#160,#160,#190,.T.);
#176=EDGE_CURVE('',#161,#161,#191,.T.);
#177=EDGE_CURVE('',#162,#162,#192,.T.);
#178=EDGE_CURVE('',#163,#163,#193,.T.);
#179=EDGE_CURVE('',#164,#164,#194,.T.);
#180=EDGE_CURVE('',#165,#165,#195,.T.);
#181=EDGE_CURVE('',#166,#166,#196,.T.);
#182=EDGE_CURVE('',#167,#167,#197,.T.);
#183=EDGE_CURVE('',#168,#168,#198,.T.);
#184=CIRCLE('',#200,6.29999999999999);
#185=CIRCLE('',#201,6.99999999999999);
#186=CIRCLE('',#203,7.49999999999999);
#187=CIRCLE('',#205,7.99999999999999);
#188=CIRCLE('',#206,7.99999999999999);
#189=CIRCLE('',#208,6.01162830234938);
#190=CIRCLE('',#209,7.9883716976506);
#191=CIRCLE('',#211,5.99999999999999);
#192=CIRCLE('',#212,5.99999999999999);
#193=CIRCLE('',#214,4.79999999999999);
#194=CIRCLE('',#215,5.49999999999999);
#195=CIRCLE('',#217,4.49999999999999);
#196=CIRCLE('',#218,4.49999999999999);
#197=CIRCLE('',#220,5.99999999999999);
#198=CIRCLE('',#222,5.99999999999999);
#199=AXIS2_PLACEMENT_3D('',#292,#230,#231);
#200=AXIS2_PLACEMENT_3D('',#293,#232,#233);
#201=AXIS2_PLACEMENT_3D('',#295,#234,#235);
#202=AXIS2_PLACEMENT_3D('',#297,#236,#237);
#203=AXIS2_PLACEMENT_3D('',#298,#238,#239);
#204=AXIS2_PLACEMENT_3D('',#300,#240,#241);
#205=AXIS2_PLACEMENT_3D('',#301,#242,#243);
#206=AXIS2_PLACEMENT_3D('',#303,#244,#245);
#207=AXIS2_PLACEMENT_3D('',#305,#246,#247);
#208=AXIS2_PLACEMENT_3D('',#306,#248,#249);
#209=AXIS2_PLACEMENT_3D('',#308,#250,#251);
#210=AXIS2_PLACEMENT_3D('',#310,#252,#253);
#211=AXIS2_PLACEMENT_3D('',#311,#254,#255);
#212=AXIS2_PLACEMENT_3D('',#313,#256,#257);
#213=AXIS2_PLACEMENT_3D('',#315,#258,#259);
#214=AXIS2_PLACEMENT_3D('',#316,#260,#261);
#215=AXIS2_PLACEMENT_3D('',#318,#262,#263);
#216=AXIS2_PLACEMENT_3D('',#320,#264,#265);
#217=AXIS2_PLACEMENT_3D('',#321,#266,#267);
#218=AXIS2_PLACEMENT_3D('',#323,#268,#269);
#219=AXIS2_PLACEMENT_3D('',#325,#270,#271);
#220=AXIS2_PLACEMENT_3D('',#326,#272,#273);
#221=AXIS2_PLACEMENT_3D('',#328,#274,#275);
#222=AXIS2_PLACEMENT_3D('',#329,#276,#277);
#223=AXIS2_PLACEMENT_3D('',#331,#278,#279);
#224=AXIS2_PLACEMENT_3D('',#332,#280,#281);
#225=AXIS2_PLACEMENT_3D('',#333,#282,#283);
#226=AXIS2_PLACEMENT_3D('',#334,#284,#285);
#227=AXIS2_PLACEMENT_3D('',#335,#286,#287);
#228=AXIS2_PLACEMENT_3D('',#336,#288,#289);
#229=AXIS2_PLACEMENT_3D('',#337,#290,#291);
#230=DIRECTION('',(0.,0.,1.));
#231=DIRECTION('',(1.,0.,0.));
#232=DIRECTION('',(1.,0.,0.));
#233=DIRECTION('',(0.,0.,1.));
#234=DIRECTION('',(-1.,0.,0.));
#235=DIRECTION('',(0.,0.,1.));
#236=DIRECTION('',(-1.,0.,0.));
#237=DIRECTION('',(0.,0.,1.));
#238=DIRECTION('',(-1.,0.,0.));
#239=DIRECTION('',(0.,0.,1.));
#240=DIRECTION('',(1.,0.,0.));
#241=DIRECTION('',(2.35309714546326E-19,0.,-1.));
#242=DIRECTION('',(-1.,0.,0.));
#243=DIRECTION('',(0.,0.,-1.));
#244=DIRECTION('',(1.,0.,0.));
#245=DIRECTION('',(0.,0.,-1.));
#246=DIRECTION('',(-1.,0.,0.));
#247=DIRECTION('',(0.,0.,1.));
#248=DIRECTION('',(-1.,0.,0.));
#249=DIRECTION('',(0.,0.,1.));
#250=DIRECTION('',(1.,0.,0.));
#251=DIRECTION('',(0.,0.,-1.));
#252=DIRECTION('',(-1.,0.,0.));
#253=DIRECTION('',(6.43100908394445E-17,0.,1.));
#254=DIRECTION('',(-1.,0.,0.));
#255=DIRECTION('',(0.,0.,-1.));
#256=DIRECTION('',(1.,0.,0.));
#257=DIRECTION('',(0.,0.,1.));
#258=DIRECTION('',(-1.,0.,0.));
#259=DIRECTION('',(0.,0.,1.));
#260=DIRECTION('',(-1.,0.,0.));
#261=DIRECTION('',(0.,0.,-1.));
#262=DIRECTION('',(-1.,0.,0.));
#263=DIRECTION('',(0.,0.,1.));
#264=DIRECTION('',(1.,0.,0.));
#265=DIRECTION('',(0.,0.,-1.));
#266=DIRECTION('',(1.,0.,0.));
#267=DIRECTION('',(0.,0.,-1.));
#268=DIRECTION('',(-1.,0.,0.));
#269=DIRECTION('',(0.,0.,1.));
#270=DIRECTION('',(-1.,0.,0.));
#271=DIRECTION('',(0.,0.,1.));
#272=DIRECTION('',(-1.,0.,0.));
#273=DIRECTION('',(0.,0.,1.));
#274=DIRECTION('',(-1.,0.,0.));
#275=DIRECTION('',(2.02103705939046E-16,0.,1.));
#276=DIRECTION('',(-1.,0.,0.));
#277=DIRECTION('',(0.,0.,1.));
#278=DIRECTION('',(-1.,0.,0.));
#279=DIRECTION('',(0.,0.,1.));
#280=DIRECTION('',(1.,0.,0.));
#281=DIRECTION('',(0.,0.,-1.));
#282=DIRECTION('',(-1.,0.,0.));
#283=DIRECTION('',(0.,0.,1.));
#284=DIRECTION('',(1.,0.,0.));
#285=DIRECTION('',(0.,0.,-1.));
#286=DIRECTION('',(1.,0.,0.));
#287=DIRECTION('',(0.,0.,-1.));
#288=DIRECTION('',(1.,0.,0.));
#289=DIRECTION('',(4.14344779293826E-17,0.,-1.));
#290=DIRECTION('',(-1.,0.,0.));
#291=DIRECTION('',(-3.26015066776208E-17,0.,1.));
#292=CARTESIAN_POINT('',(0.,0.,0.));
#293=CARTESIAN_POINT('',(-2.04607774555295E-16,0.,0.));
#294=CARTESIAN_POINT('',(-2.04607774555295E-16,0.,6.29999999999999));
#295=CARTESIAN_POINT('',(-4.0921554911059E-16,0.,0.));
#296=CARTESIAN_POINT('',(-4.0921554911059E-16,0.,6.99999999999999));
#297=CARTESIAN_POINT('',(-2.04607774555295E-16,5.99999999999999,0.));
#298=CARTESIAN_POINT('',(0.288675134594811,0.,0.));
#299=CARTESIAN_POINT('',(0.288675134594811,0.,7.49999999999999));
#300=CARTESIAN_POINT('',(-4.0921554911059E-16,0.,0.));
#301=CARTESIAN_POINT('',(14.923526781017,0.,0.));
#302=CARTESIAN_POINT('',(14.923526781017,0.,-7.99999999999999));
#303=CARTESIAN_POINT('',(1.15470053837925,0.,0.));
#304=CARTESIAN_POINT('',(1.15470053837925,0.,-7.99999999999999));
#305=CARTESIAN_POINT('',(0.,0.,0.));
#306=CARTESIAN_POINT('',(27.924416034729,0.,0.));
#307=CARTESIAN_POINT('',(27.924416034729,0.,6.01162830234938));
#308=CARTESIAN_POINT('',(15.075583965271,0.,0.));
#309=CARTESIAN_POINT('',(15.075583965271,0.,-7.9883716976506));
#310=CARTESIAN_POINT('',(15.,0.,0.));
#311=CARTESIAN_POINT('',(37.1339745962156,0.,0.));
#312=CARTESIAN_POINT('',(37.1339745962156,0.,-5.99999999999999));
#313=CARTESIAN_POINT('',(28.0764732189829,0.,0.));
#314=CARTESIAN_POINT('',(28.0764732189829,0.,5.99999999999999));
#315=CARTESIAN_POINT('',(0.,0.,0.));
#316=CARTESIAN_POINT('',(38.,0.,0.));
#317=CARTESIAN_POINT('',(38.,0.,-4.79999999999999));
#318=CARTESIAN_POINT('',(38.,0.,0.));
#319=CARTESIAN_POINT('',(38.,0.,5.49999999999999));
#320=CARTESIAN_POINT('',(38.,5.49999999999999,0.));
#321=CARTESIAN_POINT('',(37.7,0.,0.));
#322=CARTESIAN_POINT('',(37.7,0.,-4.49999999999999));
#323=CARTESIAN_POINT('',(20.,0.,0.));
#324=CARTESIAN_POINT('',(20.,0.,4.49999999999999));
#325=CARTESIAN_POINT('',(0.,0.,0.));
#326=CARTESIAN_POINT('',(10.,0.,0.));
#327=CARTESIAN_POINT('',(10.,0.,5.99999999999999));
#328=CARTESIAN_POINT('',(20.,0.,0.));
#329=CARTESIAN_POINT('',(0.3,0.,0.));
#330=CARTESIAN_POINT('',(0.3,0.,5.99999999999999));
#331=CARTESIAN_POINT('',(0.,0.,0.));
#332=CARTESIAN_POINT('',(37.1339745962156,0.,0.));
#333=CARTESIAN_POINT('',(28.0764732189829,0.,0.));
#334=CARTESIAN_POINT('',(14.923526781017,0.,0.));
#335=CARTESIAN_POINT('',(1.15470053837925,0.,0.));
#336=CARTESIAN_POINT('',(38.,0.,0.));
#337=CARTESIAN_POINT('',(0.3,0.,0.));
#338=MECHANICAL_DESIGN_GEOMETRIC_PRESENTATION_REPRESENTATION('',(#24),#339);
#339=(
GEOMETRIC_REPRESENTATION_CONTEXT(3)
GLOBAL_UNCERTAINTY_ASSIGNED_CONTEXT((#340))
GLOBAL_UNIT_ASSIGNED_CONTEXT((#346,#342,#341))
REPRESENTATION_CONTEXT('X-KOR1621215','TOP_LEVEL_ASSEMBLY_PART')
);
#340=UNCERTAINTY_MEASURE_WITH_UNIT(LENGTH_MEASURE(2.E-5),#346,
'DISTANCE_ACCURACY_VALUE','Maximum Tolerance applied to model');
#341=(
NAMED_UNIT(*)
SI_UNIT($,.STERADIAN.)
SOLID_ANGLE_UNIT()
);
#342=(
CONVERSION_BASED_UNIT('DEGREE',#344)
NAMED_UNIT(#343)
PLANE_ANGLE_UNIT()
);
#343=DIMENSIONAL_EXPONENTS(0.,0.,0.,0.,0.,0.,0.);
#344=PLANE_ANGLE_MEASURE_WITH_UNIT(PLANE_ANGLE_MEASURE(0.0174532925),#345);
#345=(
NAMED_UNIT(*)
PLANE_ANGLE_UNIT()
SI_UNIT($,.RADIAN.)
);
#346=(
LENGTH_UNIT()
NAMED_UNIT(*)
SI_UNIT(.MILLI.,.METRE.)
);
ENDSEC;
END-ISO-10303-21;
