ISO-10303-21;
HEADER;
/* Generated by software containing ST-Developer
 * from STEP Tools, Inc. (www.steptools.com) 
 */
/* OPTION: using custom schema-name function */

FILE_DESCRIPTION(
/* description */ (''),
/* implementation_level */ '2;1');

FILE_NAME(
/* name */ 'X-KOR48332253.stp',
/* time_stamp */ '2023-05-02T10:53:40+02:00',
/* author */ (''),
/* organization */ (''),
/* preprocessor_version */ 'ST-DEVELOPER v16',
/* originating_system */ 'SIEMENS PLM Software NX 10.0',
/* authorisation */ '');

FILE_SCHEMA (('AUTOMOTIVE_DESIGN { 1 0 10303 214 3 1 1 1 }'));
ENDSEC;

DATA;
#10=SHAPE_REPRESENTATION_RELATIONSHIP('None',
'relationship between X-KOR-None and X-KOR-None',#22,#11);
#11=ADVANCED_BREP_SHAPE_REPRESENTATION('X-KOR-None',(#32),#359);
#12=SHAPE_DEFINITION_REPRESENTATION(#13,#22);
#13=PRODUCT_DEFINITION_SHAPE('','',#14);
#14=PRODUCT_DEFINITION(' ','',#16,#15);
#15=PRODUCT_DEFINITION_CONTEXT('part definition',#21,'design');
#16=PRODUCT_DEFINITION_FORMATION_WITH_SPECIFIED_SOURCE(' ',' ',#18,
 .NOT_KNOWN.);
#17=PRODUCT_RELATED_PRODUCT_CATEGORY('part','',(#18));
#18=PRODUCT('X-KOR','X-KOR',' ',(#19));
#19=PRODUCT_CONTEXT(' ',#21,'mechanical');
#20=APPLICATION_PROTOCOL_DEFINITION('international standard',
'automotive_design',2010,#21);
#21=APPLICATION_CONTEXT(
'core data for automotive mechanical design processes');
#22=SHAPE_REPRESENTATION('X-KOR-None',(#210),#359);
#23=PRESENTATION_LAYER_ASSIGNMENT('1','Layer 1',(#32));
#24=STYLED_ITEM('',(#25),#32);
#25=PRESENTATION_STYLE_ASSIGNMENT((#26));
#26=SURFACE_STYLE_USAGE(.BOTH.,#27);
#27=SURFACE_SIDE_STYLE('',(#28));
#28=SURFACE_STYLE_FILL_AREA(#29);
#29=FILL_AREA_STYLE('',(#30));
#30=FILL_AREA_STYLE_COLOUR('',#31);
#31=COLOUR_RGB('Mittleres Stahlblau',0.596063172350652,0.666666666666667,
0.686259250782025);
#32=MANIFOLD_SOLID_BREP('',#33);
#33=CLOSED_SHELL('',(#48,#49,#50,#51,#52,#53,#54,#55,#56,#57,#58,#59,#60,
#61,#62,#63));
#34=TOROIDAL_SURFACE('',#237,11.5,1.);
#35=TOROIDAL_SURFACE('',#238,13.5,1.);
#36=TOROIDAL_SURFACE('',#239,23.15,1.);
#37=TOROIDAL_SURFACE('',#240,23.15,1.);
#38=CYLINDRICAL_SURFACE('',#218,24.15);
#39=CYLINDRICAL_SURFACE('',#224,12.5);
#40=CYLINDRICAL_SURFACE('',#232,9.49999999999999);
#41=CYLINDRICAL_SURFACE('',#236,20.95);
#42=CONICAL_SURFACE('',#215,21.95,60.);
#43=CONICAL_SURFACE('',#221,24.15,18.9138729130361);
#44=CONICAL_SURFACE('',#227,12.5,59.9999999999998);
#45=CONICAL_SURFACE('',#234,9.49999999999999,18.6117091509037);
#46=CONICAL_SURFACE('',#241,9.79999999999999,45.0000000000005);
#47=CONICAL_SURFACE('',#242,20.95,44.9999999999998);
#48=ADVANCED_FACE('',(#66,#67),#64,.T.);
#49=ADVANCED_FACE('',(#68,#69),#42,.T.);
#50=ADVANCED_FACE('',(#70,#71),#38,.T.);
#51=ADVANCED_FACE('',(#72,#73),#43,.T.);
#52=ADVANCED_FACE('',(#74,#75),#39,.T.);
#53=ADVANCED_FACE('',(#76,#77),#44,.T.);
#54=ADVANCED_FACE('',(#78,#79),#65,.T.);
#55=ADVANCED_FACE('',(#80,#81),#40,.F.);
#56=ADVANCED_FACE('',(#82,#83),#45,.F.);
#57=ADVANCED_FACE('',(#84,#85),#41,.F.);
#58=ADVANCED_FACE('',(#86,#87),#34,.T.);
#59=ADVANCED_FACE('',(#88,#89),#35,.F.);
#60=ADVANCED_FACE('',(#90,#91),#36,.T.);
#61=ADVANCED_FACE('',(#92,#93),#37,.T.);
#62=ADVANCED_FACE('',(#94,#95),#46,.F.);
#63=ADVANCED_FACE('',(#96,#97),#47,.F.);
#64=PLANE('',#213);
#65=PLANE('',#229);
#66=FACE_BOUND('',#98,.T.);
#67=FACE_BOUND('',#99,.T.);
#68=FACE_BOUND('',#100,.T.);
#69=FACE_BOUND('',#101,.T.);
#70=FACE_BOUND('',#102,.T.);
#71=FACE_BOUND('',#103,.T.);
#72=FACE_BOUND('',#104,.T.);
#73=FACE_BOUND('',#105,.T.);
#74=FACE_BOUND('',#106,.T.);
#75=FACE_BOUND('',#107,.T.);
#76=FACE_BOUND('',#108,.T.);
#77=FACE_BOUND('',#109,.T.);
#78=FACE_BOUND('',#110,.T.);
#79=FACE_BOUND('',#111,.T.);
#80=FACE_BOUND('',#112,.T.);
#81=FACE_BOUND('',#113,.T.);
#82=FACE_BOUND('',#114,.T.);
#83=FACE_BOUND('',#115,.T.);
#84=FACE_BOUND('',#116,.T.);
#85=FACE_BOUND('',#117,.T.);
#86=FACE_BOUND('',#118,.T.);
#87=FACE_BOUND('',#119,.T.);
#88=FACE_BOUND('',#120,.T.);
#89=FACE_BOUND('',#121,.T.);
#90=FACE_BOUND('',#122,.T.);
#91=FACE_BOUND('',#123,.T.);
#92=FACE_BOUND('',#124,.T.);
#93=FACE_BOUND('',#125,.T.);
#94=FACE_BOUND('',#126,.T.);
#95=FACE_BOUND('',#127,.T.);
#96=FACE_BOUND('',#128,.T.);
#97=FACE_BOUND('',#129,.T.);
#98=EDGE_LOOP('',(#130));
#99=EDGE_LOOP('',(#131));
#100=EDGE_LOOP('',(#132));
#101=EDGE_LOOP('',(#133));
#102=EDGE_LOOP('',(#134));
#103=EDGE_LOOP('',(#135));
#104=EDGE_LOOP('',(#136));
#105=EDGE_LOOP('',(#137));
#106=EDGE_LOOP('',(#138));
#107=EDGE_LOOP('',(#139));
#108=EDGE_LOOP('',(#140));
#109=EDGE_LOOP('',(#141));
#110=EDGE_LOOP('',(#142));
#111=EDGE_LOOP('',(#143));
#112=EDGE_LOOP('',(#144));
#113=EDGE_LOOP('',(#145));
#114=EDGE_LOOP('',(#146));
#115=EDGE_LOOP('',(#147));
#116=EDGE_LOOP('',(#148));
#117=EDGE_LOOP('',(#149));
#118=EDGE_LOOP('',(#150));
#119=EDGE_LOOP('',(#151));
#120=EDGE_LOOP('',(#152));
#121=EDGE_LOOP('',(#153));
#122=EDGE_LOOP('',(#154));
#123=EDGE_LOOP('',(#155));
#124=EDGE_LOOP('',(#156));
#125=EDGE_LOOP('',(#157));
#126=EDGE_LOOP('',(#158));
#127=EDGE_LOOP('',(#159));
#128=EDGE_LOOP('',(#160));
#129=EDGE_LOOP('',(#161));
#130=ORIENTED_EDGE('',*,*,#178,.T.);
#131=ORIENTED_EDGE('',*,*,#179,.T.);
#132=ORIENTED_EDGE('',*,*,#180,.T.);
#133=ORIENTED_EDGE('',*,*,#179,.F.);
#134=ORIENTED_EDGE('',*,*,#181,.T.);
#135=ORIENTED_EDGE('',*,*,#182,.T.);
#136=ORIENTED_EDGE('',*,*,#183,.T.);
#137=ORIENTED_EDGE('',*,*,#184,.T.);
#138=ORIENTED_EDGE('',*,*,#185,.T.);
#139=ORIENTED_EDGE('',*,*,#186,.T.);
#140=ORIENTED_EDGE('',*,*,#187,.T.);
#141=ORIENTED_EDGE('',*,*,#188,.T.);
#142=ORIENTED_EDGE('',*,*,#189,.T.);
#143=ORIENTED_EDGE('',*,*,#188,.F.);
#144=ORIENTED_EDGE('',*,*,#190,.T.);
#145=ORIENTED_EDGE('',*,*,#191,.T.);
#146=ORIENTED_EDGE('',*,*,#192,.T.);
#147=ORIENTED_EDGE('',*,*,#191,.F.);
#148=ORIENTED_EDGE('',*,*,#193,.T.);
#149=ORIENTED_EDGE('',*,*,#192,.F.);
#150=ORIENTED_EDGE('',*,*,#187,.F.);
#151=ORIENTED_EDGE('',*,*,#185,.F.);
#152=ORIENTED_EDGE('',*,*,#186,.F.);
#153=ORIENTED_EDGE('',*,*,#183,.F.);
#154=ORIENTED_EDGE('',*,*,#184,.F.);
#155=ORIENTED_EDGE('',*,*,#181,.F.);
#156=ORIENTED_EDGE('',*,*,#182,.F.);
#157=ORIENTED_EDGE('',*,*,#180,.F.);
#158=ORIENTED_EDGE('',*,*,#190,.F.);
#159=ORIENTED_EDGE('',*,*,#189,.F.);
#160=ORIENTED_EDGE('',*,*,#178,.F.);
#161=ORIENTED_EDGE('',*,*,#193,.F.);
#162=VERTEX_POINT('',#311);
#163=VERTEX_POINT('',#313);
#164=VERTEX_POINT('',#316);
#165=VERTEX_POINT('',#319);
#166=VERTEX_POINT('',#321);
#167=VERTEX_POINT('',#324);
#168=VERTEX_POINT('',#326);
#169=VERTEX_POINT('',#329);
#170=VERTEX_POINT('',#331);
#171=VERTEX_POINT('',#334);
#172=VERTEX_POINT('',#336);
#173=VERTEX_POINT('',#339);
#174=VERTEX_POINT('',#342);
#175=VERTEX_POINT('',#344);
#176=VERTEX_POINT('',#347);
#177=VERTEX_POINT('',#350);
#178=EDGE_CURVE('',#162,#162,#194,.T.);
#179=EDGE_CURVE('',#163,#163,#195,.T.);
#180=EDGE_CURVE('',#164,#164,#196,.T.);
#181=EDGE_CURVE('',#165,#165,#197,.T.);
#182=EDGE_CURVE('',#166,#166,#198,.T.);
#183=EDGE_CURVE('',#167,#167,#199,.T.);
#184=EDGE_CURVE('',#168,#168,#200,.T.);
#185=EDGE_CURVE('',#169,#169,#201,.T.);
#186=EDGE_CURVE('',#170,#170,#202,.T.);
#187=EDGE_CURVE('',#171,#171,#203,.T.);
#188=EDGE_CURVE('',#172,#172,#204,.T.);
#189=EDGE_CURVE('',#173,#173,#205,.T.);
#190=EDGE_CURVE('',#174,#174,#206,.T.);
#191=EDGE_CURVE('',#175,#175,#207,.T.);
#192=EDGE_CURVE('',#176,#176,#208,.T.);
#193=EDGE_CURVE('',#177,#177,#209,.T.);
#194=CIRCLE('',#211,21.25);
#195=CIRCLE('',#212,21.95);
#196=CIRCLE('',#214,23.65);
#197=CIRCLE('',#216,24.15);
#198=CIRCLE('',#217,24.15);
#199=CIRCLE('',#219,12.5539930983839);
#200=CIRCLE('',#220,24.0960069016161);
#201=CIRCLE('',#222,12.5);
#202=CIRCLE('',#223,12.5);
#203=CIRCLE('',#225,12.);
#204=CIRCLE('',#226,10.5);
#205=CIRCLE('',#228,9.79999999999999);
#206=CIRCLE('',#230,9.49999999999999);
#207=CIRCLE('',#231,9.49999999999999);
#208=CIRCLE('',#233,20.95);
#209=CIRCLE('',#235,20.95);
#210=AXIS2_PLACEMENT_3D('',#309,#243,#244);
#211=AXIS2_PLACEMENT_3D('',#310,#245,#246);
#212=AXIS2_PLACEMENT_3D('',#312,#247,#248);
#213=AXIS2_PLACEMENT_3D('',#314,#249,#250);
#214=AXIS2_PLACEMENT_3D('',#315,#251,#252);
#215=AXIS2_PLACEMENT_3D('',#317,#253,#254);
#216=AXIS2_PLACEMENT_3D('',#318,#255,#256);
#217=AXIS2_PLACEMENT_3D('',#320,#257,#258);
#218=AXIS2_PLACEMENT_3D('',#322,#259,#260);
#219=AXIS2_PLACEMENT_3D('',#323,#261,#262);
#220=AXIS2_PLACEMENT_3D('',#325,#263,#264);
#221=AXIS2_PLACEMENT_3D('',#327,#265,#266);
#222=AXIS2_PLACEMENT_3D('',#328,#267,#268);
#223=AXIS2_PLACEMENT_3D('',#330,#269,#270);
#224=AXIS2_PLACEMENT_3D('',#332,#271,#272);
#225=AXIS2_PLACEMENT_3D('',#333,#273,#274);
#226=AXIS2_PLACEMENT_3D('',#335,#275,#276);
#227=AXIS2_PLACEMENT_3D('',#337,#277,#278);
#228=AXIS2_PLACEMENT_3D('',#338,#279,#280);
#229=AXIS2_PLACEMENT_3D('',#340,#281,#282);
#230=AXIS2_PLACEMENT_3D('',#341,#283,#284);
#231=AXIS2_PLACEMENT_3D('',#343,#285,#286);
#232=AXIS2_PLACEMENT_3D('',#345,#287,#288);
#233=AXIS2_PLACEMENT_3D('',#346,#289,#290);
#234=AXIS2_PLACEMENT_3D('',#348,#291,#292);
#235=AXIS2_PLACEMENT_3D('',#349,#293,#294);
#236=AXIS2_PLACEMENT_3D('',#351,#295,#296);
#237=AXIS2_PLACEMENT_3D('',#352,#297,#298);
#238=AXIS2_PLACEMENT_3D('',#353,#299,#300);
#239=AXIS2_PLACEMENT_3D('',#354,#301,#302);
#240=AXIS2_PLACEMENT_3D('',#355,#303,#304);
#241=AXIS2_PLACEMENT_3D('',#356,#305,#306);
#242=AXIS2_PLACEMENT_3D('',#357,#307,#308);
#243=DIRECTION('',(0.,0.,1.));
#244=DIRECTION('',(1.,0.,0.));
#245=DIRECTION('',(1.,0.,0.));
#246=DIRECTION('',(0.,0.,1.));
#247=DIRECTION('',(-1.,0.,0.));
#248=DIRECTION('',(0.,0.,1.));
#249=DIRECTION('',(-1.,0.,0.));
#250=DIRECTION('',(0.,0.,1.));
#251=DIRECTION('',(-1.,0.,0.));
#252=DIRECTION('',(0.,0.,1.));
#253=DIRECTION('',(1.,0.,0.));
#254=DIRECTION('',(-5.26255219756136E-19,0.,-1.));
#255=DIRECTION('',(-1.,0.,0.));
#256=DIRECTION('',(0.,0.,-1.));
#257=DIRECTION('',(1.,0.,0.));
#258=DIRECTION('',(0.,0.,-1.));
#259=DIRECTION('',(-1.,0.,0.));
#260=DIRECTION('',(0.,0.,1.));
#261=DIRECTION('',(-1.,0.,0.));
#262=DIRECTION('',(0.,0.,1.));
#263=DIRECTION('',(1.,0.,0.));
#264=DIRECTION('',(0.,0.,-1.));
#265=DIRECTION('',(-1.,0.,0.));
#266=DIRECTION('',(6.62113506078021E-17,0.,1.));
#267=DIRECTION('',(-1.,0.,0.));
#268=DIRECTION('',(0.,0.,-1.));
#269=DIRECTION('',(1.,0.,0.));
#270=DIRECTION('',(0.,0.,1.));
#271=DIRECTION('',(-1.,0.,0.));
#272=DIRECTION('',(0.,0.,1.));
#273=DIRECTION('',(1.,0.,0.));
#274=DIRECTION('',(0.,0.,-1.));
#275=DIRECTION('',(-1.,0.,0.));
#276=DIRECTION('',(0.,0.,1.));
#277=DIRECTION('',(-1.,0.,0.));
#278=DIRECTION('',(2.38648041907487E-17,0.,1.));
#279=DIRECTION('',(-1.,0.,0.));
#280=DIRECTION('',(0.,0.,-1.));
#281=DIRECTION('',(1.,0.,0.));
#282=DIRECTION('',(0.,0.,-1.));
#283=DIRECTION('',(1.,0.,0.));
#284=DIRECTION('',(0.,0.,-1.));
#285=DIRECTION('',(-1.,0.,0.));
#286=DIRECTION('',(0.,0.,1.));
#287=DIRECTION('',(-1.,0.,0.));
#288=DIRECTION('',(0.,0.,1.));
#289=DIRECTION('',(-1.,0.,0.));
#290=DIRECTION('',(0.,0.,1.));
#291=DIRECTION('',(-1.,0.,0.));
#292=DIRECTION('',(1.2023565415757E-16,0.,1.));
#293=DIRECTION('',(-1.,0.,0.));
#294=DIRECTION('',(0.,0.,1.));
#295=DIRECTION('',(-1.,0.,0.));
#296=DIRECTION('',(0.,0.,1.));
#297=DIRECTION('',(1.,0.,0.));
#298=DIRECTION('',(0.,0.,-1.));
#299=DIRECTION('',(-1.,0.,0.));
#300=DIRECTION('',(0.,0.,1.));
#301=DIRECTION('',(1.,0.,0.));
#302=DIRECTION('',(0.,0.,-1.));
#303=DIRECTION('',(1.,0.,0.));
#304=DIRECTION('',(0.,0.,-1.));
#305=DIRECTION('',(1.,0.,0.));
#306=DIRECTION('',(5.49724215005515E-17,0.,-1.));
#307=DIRECTION('',(-1.,0.,0.));
#308=DIRECTION('',(-3.28143857483739E-17,0.,1.));
#309=CARTESIAN_POINT('',(0.,0.,0.));
#310=CARTESIAN_POINT('',(4.61526040219799E-16,0.,0.));
#311=CARTESIAN_POINT('',(4.61526040219799E-16,0.,21.25));
#312=CARTESIAN_POINT('',(9.23052080439598E-16,0.,0.));
#313=CARTESIAN_POINT('',(9.23052080439598E-16,0.,21.95));
#314=CARTESIAN_POINT('',(4.61526040219799E-16,20.95,0.));
#315=CARTESIAN_POINT('',(0.981495457622361,0.,0.));
#316=CARTESIAN_POINT('',(0.981495457622361,0.,23.65));
#317=CARTESIAN_POINT('',(9.23052080439598E-16,0.,0.));
#318=CARTESIAN_POINT('',(19.8334299420026,0.,0.));
#319=CARTESIAN_POINT('',(19.8334299420026,0.,-24.15));
#320=CARTESIAN_POINT('',(1.8475208614068,0.,0.));
#321=CARTESIAN_POINT('',(1.8475208614068,0.,-24.15));
#322=CARTESIAN_POINT('',(0.,0.,0.));
#323=CARTESIAN_POINT('',(53.8424235755319,0.,0.));
#324=CARTESIAN_POINT('',(53.8424235755319,0.,12.5539930983839));
#325=CARTESIAN_POINT('',(20.1575764244681,0.,0.));
#326=CARTESIAN_POINT('',(20.1575764244681,0.,-24.0960069016161));
#327=CARTESIAN_POINT('',(20.,0.,0.));
#328=CARTESIAN_POINT('',(62.2679491924311,0.,0.));
#329=CARTESIAN_POINT('',(62.2679491924311,0.,-12.5));
#330=CARTESIAN_POINT('',(54.1665700579974,0.,0.));
#331=CARTESIAN_POINT('',(54.1665700579974,0.,12.5));
#332=CARTESIAN_POINT('',(0.,0.,0.));
#333=CARTESIAN_POINT('',(63.1339745962155,0.,0.));
#334=CARTESIAN_POINT('',(63.1339745962155,0.,-12.));
#335=CARTESIAN_POINT('',(64.,0.,0.));
#336=CARTESIAN_POINT('',(64.,0.,10.5));
#337=CARTESIAN_POINT('',(62.8452994616207,0.,0.));
#338=CARTESIAN_POINT('',(64.,0.,0.));
#339=CARTESIAN_POINT('',(64.,0.,-9.79999999999999));
#340=CARTESIAN_POINT('',(64.,10.5,0.));
#341=CARTESIAN_POINT('',(63.7,0.,0.));
#342=CARTESIAN_POINT('',(63.7,0.,-9.49999999999999));
#343=CARTESIAN_POINT('',(46.,0.,0.));
#344=CARTESIAN_POINT('',(46.,0.,9.49999999999999));
#345=CARTESIAN_POINT('',(0.,0.,0.));
#346=CARTESIAN_POINT('',(12.,0.,0.));
#347=CARTESIAN_POINT('',(12.,0.,20.95));
#348=CARTESIAN_POINT('',(46.,0.,0.));
#349=CARTESIAN_POINT('',(0.3,0.,0.));
#350=CARTESIAN_POINT('',(0.3,0.,20.95));
#351=CARTESIAN_POINT('',(0.,0.,0.));
#352=CARTESIAN_POINT('',(62.2679491924311,0.,0.));
#353=CARTESIAN_POINT('',(54.1665700579974,0.,0.));
#354=CARTESIAN_POINT('',(19.8334299420026,0.,0.));
#355=CARTESIAN_POINT('',(1.8475208614068,0.,0.));
#356=CARTESIAN_POINT('',(64.,0.,0.));
#357=CARTESIAN_POINT('',(0.3,0.,0.));
#358=MECHANICAL_DESIGN_GEOMETRIC_PRESENTATION_REPRESENTATION('',(#24),#359);
#359=(
GEOMETRIC_REPRESENTATION_CONTEXT(3)
GLOBAL_UNCERTAINTY_ASSIGNED_CONTEXT((#360))
GLOBAL_UNIT_ASSIGNED_CONTEXT((#366,#362,#361))
REPRESENTATION_CONTEXT('X-KOR48332253','TOP_LEVEL_ASSEMBLY_PART')
);
#360=UNCERTAINTY_MEASURE_WITH_UNIT(LENGTH_MEASURE(2.E-5),#366,
'DISTANCE_ACCURACY_VALUE','Maximum Tolerance applied to model');
#361=(
NAMED_UNIT(*)
SI_UNIT($,.STERADIAN.)
SOLID_ANGLE_UNIT()
);
#362=(
CONVERSION_BASED_UNIT('DEGREE',#364)
NAMED_UNIT(#363)
PLANE_ANGLE_UNIT()
);
#363=DIMENSIONAL_EXPONENTS(0.,0.,0.,0.,0.,0.,0.);
#364=PLANE_ANGLE_MEASURE_WITH_UNIT(PLANE_ANGLE_MEASURE(0.0174532925),#365);
#365=(
NAMED_UNIT(*)
PLANE_ANGLE_UNIT()
SI_UNIT($,.RADIAN.)
);
#366=(
LENGTH_UNIT()
NAMED_UNIT(*)
SI_UNIT(.MILLI.,.METRE.)
);
ENDSEC;
END-ISO-10303-21;
