ISO-10303-21;
HEADER;
/* Generated by software containing ST-Developer
 * from STEP Tools, Inc. (www.steptools.com) 
 */
/* OPTION: using custom schema-name function */

FILE_DESCRIPTION(
/* description */ (''),
/* implementation_level */ '2;1');

FILE_NAME(
/* name */ 'X-KOR603116038.stp',
/* time_stamp */ '2023-05-02T10:56:41+02:00',
/* author */ (''),
/* organization */ (''),
/* preprocessor_version */ 'ST-DEVELOPER v16',
/* originating_system */ 'SIEMENS PLM Software NX 10.0',
/* authorisation */ '');

FILE_SCHEMA (('AUTOMOTIVE_DESIGN { 1 0 10303 214 3 1 1 1 }'));
ENDSEC;

DATA;
#10=SHAPE_REPRESENTATION_RELATIONSHIP('None',
'relationship between X-KOR-None and X-KOR-None',#22,#11);
#11=ADVANCED_BREP_SHAPE_REPRESENTATION('X-KOR-None',(#32),#259);
#12=SHAPE_DEFINITION_REPRESENTATION(#13,#22);
#13=PRODUCT_DEFINITION_SHAPE('','',#14);
#14=PRODUCT_DEFINITION(' ','',#16,#15);
#15=PRODUCT_DEFINITION_CONTEXT('part definition',#21,'design');
#16=PRODUCT_DEFINITION_FORMATION_WITH_SPECIFIED_SOURCE(' ',' ',#18,
 .NOT_KNOWN.);
#17=PRODUCT_RELATED_PRODUCT_CATEGORY('part','',(#18));
#18=PRODUCT('X-KOR','X-KOR',' ',(#19));
#19=PRODUCT_CONTEXT(' ',#21,'mechanical');
#20=APPLICATION_PROTOCOL_DEFINITION('international standard',
'automotive_design',2010,#21);
#21=APPLICATION_CONTEXT(
'core data for automotive mechanical design processes');
#22=SHAPE_REPRESENTATION('X-KOR-None',(#155),#259);
#23=PRESENTATION_LAYER_ASSIGNMENT('1','Layer 1',(#32));
#24=STYLED_ITEM('',(#25),#32);
#25=PRESENTATION_STYLE_ASSIGNMENT((#26));
#26=SURFACE_STYLE_USAGE(.BOTH.,#27);
#27=SURFACE_SIDE_STYLE('',(#28));
#28=SURFACE_STYLE_FILL_AREA(#29);
#29=FILL_AREA_STYLE('',(#30));
#30=FILL_AREA_STYLE_COLOUR('',#31);
#31=COLOUR_RGB('Mittleres Stahlblau',0.596063172350652,0.666666666666667,
0.686259250782025);
#32=MANIFOLD_SOLID_BREP('',#33);
#33=CLOSED_SHELL('',(#43,#44,#45,#46,#47,#48,#49,#50,#51,#52,#53));
#34=TOROIDAL_SURFACE('',#175,29.15,1.);
#35=CYLINDRICAL_SURFACE('',#162,30.15);
#36=CYLINDRICAL_SURFACE('',#170,22.15);
#37=CYLINDRICAL_SURFACE('',#174,19.15);
#38=CONICAL_SURFACE('',#160,21.15,60.);
#39=CONICAL_SURFACE('',#165,30.15,60.0000000000001);
#40=CONICAL_SURFACE('',#172,22.15,3.73139699916043);
#41=CONICAL_SURFACE('',#176,22.45,45.0000000000007);
#42=CONICAL_SURFACE('',#177,19.15,44.9999999999998);
#43=ADVANCED_FACE('',(#56,#57),#54,.T.);
#44=ADVANCED_FACE('',(#58,#59),#38,.T.);
#45=ADVANCED_FACE('',(#60,#61),#35,.T.);
#46=ADVANCED_FACE('',(#62,#63),#39,.T.);
#47=ADVANCED_FACE('',(#64,#65),#55,.T.);
#48=ADVANCED_FACE('',(#66,#67),#36,.F.);
#49=ADVANCED_FACE('',(#68,#69),#40,.F.);
#50=ADVANCED_FACE('',(#70,#71),#37,.F.);
#51=ADVANCED_FACE('',(#72,#73),#34,.T.);
#52=ADVANCED_FACE('',(#74,#75),#41,.F.);
#53=ADVANCED_FACE('',(#76,#77),#42,.F.);
#54=PLANE('',#158);
#55=PLANE('',#167);
#56=FACE_BOUND('',#78,.T.);
#57=FACE_BOUND('',#79,.T.);
#58=FACE_BOUND('',#80,.T.);
#59=FACE_BOUND('',#81,.T.);
#60=FACE_BOUND('',#82,.T.);
#61=FACE_BOUND('',#83,.T.);
#62=FACE_BOUND('',#84,.T.);
#63=FACE_BOUND('',#85,.T.);
#64=FACE_BOUND('',#86,.T.);
#65=FACE_BOUND('',#87,.T.);
#66=FACE_BOUND('',#88,.T.);
#67=FACE_BOUND('',#89,.T.);
#68=FACE_BOUND('',#90,.T.);
#69=FACE_BOUND('',#91,.T.);
#70=FACE_BOUND('',#92,.T.);
#71=FACE_BOUND('',#93,.T.);
#72=FACE_BOUND('',#94,.T.);
#73=FACE_BOUND('',#95,.T.);
#74=FACE_BOUND('',#96,.T.);
#75=FACE_BOUND('',#97,.T.);
#76=FACE_BOUND('',#98,.T.);
#77=FACE_BOUND('',#99,.T.);
#78=EDGE_LOOP('',(#100));
#79=EDGE_LOOP('',(#101));
#80=EDGE_LOOP('',(#102));
#81=EDGE_LOOP('',(#103));
#82=EDGE_LOOP('',(#104));
#83=EDGE_LOOP('',(#105));
#84=EDGE_LOOP('',(#106));
#85=EDGE_LOOP('',(#107));
#86=EDGE_LOOP('',(#108));
#87=EDGE_LOOP('',(#109));
#88=EDGE_LOOP('',(#110));
#89=EDGE_LOOP('',(#111));
#90=EDGE_LOOP('',(#112));
#91=EDGE_LOOP('',(#113));
#92=EDGE_LOOP('',(#114));
#93=EDGE_LOOP('',(#115));
#94=EDGE_LOOP('',(#116));
#95=EDGE_LOOP('',(#117));
#96=EDGE_LOOP('',(#118));
#97=EDGE_LOOP('',(#119));
#98=EDGE_LOOP('',(#120));
#99=EDGE_LOOP('',(#121));
#100=ORIENTED_EDGE('',*,*,#133,.T.);
#101=ORIENTED_EDGE('',*,*,#134,.T.);
#102=ORIENTED_EDGE('',*,*,#135,.T.);
#103=ORIENTED_EDGE('',*,*,#134,.F.);
#104=ORIENTED_EDGE('',*,*,#136,.T.);
#105=ORIENTED_EDGE('',*,*,#135,.F.);
#106=ORIENTED_EDGE('',*,*,#137,.T.);
#107=ORIENTED_EDGE('',*,*,#138,.T.);
#108=ORIENTED_EDGE('',*,*,#139,.T.);
#109=ORIENTED_EDGE('',*,*,#138,.F.);
#110=ORIENTED_EDGE('',*,*,#140,.T.);
#111=ORIENTED_EDGE('',*,*,#141,.T.);
#112=ORIENTED_EDGE('',*,*,#142,.T.);
#113=ORIENTED_EDGE('',*,*,#141,.F.);
#114=ORIENTED_EDGE('',*,*,#143,.T.);
#115=ORIENTED_EDGE('',*,*,#142,.F.);
#116=ORIENTED_EDGE('',*,*,#137,.F.);
#117=ORIENTED_EDGE('',*,*,#136,.F.);
#118=ORIENTED_EDGE('',*,*,#140,.F.);
#119=ORIENTED_EDGE('',*,*,#139,.F.);
#120=ORIENTED_EDGE('',*,*,#133,.F.);
#121=ORIENTED_EDGE('',*,*,#143,.F.);
#122=VERTEX_POINT('',#226);
#123=VERTEX_POINT('',#228);
#124=VERTEX_POINT('',#231);
#125=VERTEX_POINT('',#234);
#126=VERTEX_POINT('',#237);
#127=VERTEX_POINT('',#239);
#128=VERTEX_POINT('',#242);
#129=VERTEX_POINT('',#245);
#130=VERTEX_POINT('',#247);
#131=VERTEX_POINT('',#250);
#132=VERTEX_POINT('',#253);
#133=EDGE_CURVE('',#122,#122,#144,.T.);
#134=EDGE_CURVE('',#123,#123,#145,.T.);
#135=EDGE_CURVE('',#124,#124,#146,.T.);
#136=EDGE_CURVE('',#125,#125,#147,.T.);
#137=EDGE_CURVE('',#126,#126,#148,.T.);
#138=EDGE_CURVE('',#127,#127,#149,.T.);
#139=EDGE_CURVE('',#128,#128,#150,.T.);
#140=EDGE_CURVE('',#129,#129,#151,.T.);
#141=EDGE_CURVE('',#130,#130,#152,.T.);
#142=EDGE_CURVE('',#131,#131,#153,.T.);
#143=EDGE_CURVE('',#132,#132,#154,.T.);
#144=CIRCLE('',#156,19.45);
#145=CIRCLE('',#157,21.15);
#146=CIRCLE('',#159,30.15);
#147=CIRCLE('',#161,30.15);
#148=CIRCLE('',#163,29.65);
#149=CIRCLE('',#164,24.15);
#150=CIRCLE('',#166,22.45);
#151=CIRCLE('',#168,22.15);
#152=CIRCLE('',#169,22.15);
#153=CIRCLE('',#171,19.15);
#154=CIRCLE('',#173,19.15);
#155=AXIS2_PLACEMENT_3D('',#224,#178,#179);
#156=AXIS2_PLACEMENT_3D('',#225,#180,#181);
#157=AXIS2_PLACEMENT_3D('',#227,#182,#183);
#158=AXIS2_PLACEMENT_3D('',#229,#184,#185);
#159=AXIS2_PLACEMENT_3D('',#230,#186,#187);
#160=AXIS2_PLACEMENT_3D('',#232,#188,#189);
#161=AXIS2_PLACEMENT_3D('',#233,#190,#191);
#162=AXIS2_PLACEMENT_3D('',#235,#192,#193);
#163=AXIS2_PLACEMENT_3D('',#236,#194,#195);
#164=AXIS2_PLACEMENT_3D('',#238,#196,#197);
#165=AXIS2_PLACEMENT_3D('',#240,#198,#199);
#166=AXIS2_PLACEMENT_3D('',#241,#200,#201);
#167=AXIS2_PLACEMENT_3D('',#243,#202,#203);
#168=AXIS2_PLACEMENT_3D('',#244,#204,#205);
#169=AXIS2_PLACEMENT_3D('',#246,#206,#207);
#170=AXIS2_PLACEMENT_3D('',#248,#208,#209);
#171=AXIS2_PLACEMENT_3D('',#249,#210,#211);
#172=AXIS2_PLACEMENT_3D('',#251,#212,#213);
#173=AXIS2_PLACEMENT_3D('',#252,#214,#215);
#174=AXIS2_PLACEMENT_3D('',#254,#216,#217);
#175=AXIS2_PLACEMENT_3D('',#255,#218,#219);
#176=AXIS2_PLACEMENT_3D('',#256,#220,#221);
#177=AXIS2_PLACEMENT_3D('',#257,#222,#223);
#178=DIRECTION('',(0.,0.,1.));
#179=DIRECTION('',(1.,0.,0.));
#180=DIRECTION('',(1.,0.,0.));
#181=DIRECTION('',(0.,0.,1.));
#182=DIRECTION('',(-1.,0.,0.));
#183=DIRECTION('',(0.,0.,1.));
#184=DIRECTION('',(-1.,0.,0.));
#185=DIRECTION('',(0.,0.,1.));
#186=DIRECTION('',(-1.,0.,0.));
#187=DIRECTION('',(0.,0.,1.));
#188=DIRECTION('',(1.,0.,0.));
#189=DIRECTION('',(-2.4087230047357E-19,0.,-1.));
#190=DIRECTION('',(-1.,0.,0.));
#191=DIRECTION('',(0.,0.,-1.));
#192=DIRECTION('',(-1.,0.,0.));
#193=DIRECTION('',(0.,0.,1.));
#194=DIRECTION('',(1.,0.,0.));
#195=DIRECTION('',(0.,0.,-1.));
#196=DIRECTION('',(-1.,0.,0.));
#197=DIRECTION('',(0.,0.,1.));
#198=DIRECTION('',(-1.,0.,0.));
#199=DIRECTION('',(3.15010360867105E-17,0.,1.));
#200=DIRECTION('',(-1.,0.,0.));
#201=DIRECTION('',(0.,0.,-1.));
#202=DIRECTION('',(1.,0.,0.));
#203=DIRECTION('',(0.,0.,-1.));
#204=DIRECTION('',(1.,0.,0.));
#205=DIRECTION('',(0.,0.,-1.));
#206=DIRECTION('',(-1.,0.,0.));
#207=DIRECTION('',(0.,0.,1.));
#208=DIRECTION('',(-1.,0.,0.));
#209=DIRECTION('',(0.,0.,1.));
#210=DIRECTION('',(-1.,0.,0.));
#211=DIRECTION('',(0.,0.,1.));
#212=DIRECTION('',(1.,0.,0.));
#213=DIRECTION('',(7.94220108934618E-16,0.,-1.));
#214=DIRECTION('',(-1.,0.,0.));
#215=DIRECTION('',(0.,0.,1.));
#216=DIRECTION('',(-1.,0.,0.));
#217=DIRECTION('',(0.,0.,1.));
#218=DIRECTION('',(1.,0.,0.));
#219=DIRECTION('',(0.,0.,-1.));
#220=DIRECTION('',(1.,0.,0.));
#221=DIRECTION('',(8.14384340035061E-17,0.,-1.));
#222=DIRECTION('',(-1.,0.,0.));
#223=DIRECTION('',(-3.26063843268223E-17,0.,1.));
#224=CARTESIAN_POINT('',(0.,0.,0.));
#225=CARTESIAN_POINT('',(2.11148755855618E-16,0.,0.));
#226=CARTESIAN_POINT('',(2.11148755855618E-16,0.,19.45));
#227=CARTESIAN_POINT('',(4.22297511711236E-16,0.,0.));
#228=CARTESIAN_POINT('',(4.22297511711236E-16,0.,21.15));
#229=CARTESIAN_POINT('',(2.11148755855618E-16,19.15,0.));
#230=CARTESIAN_POINT('',(5.19615242270663,0.,0.));
#231=CARTESIAN_POINT('',(5.19615242270663,0.,30.15));
#232=CARTESIAN_POINT('',(4.22297511711236E-16,0.,0.));
#233=CARTESIAN_POINT('',(71.9585481156726,0.,0.));
#234=CARTESIAN_POINT('',(71.9585481156726,0.,-30.15));
#235=CARTESIAN_POINT('',(0.,0.,0.));
#236=CARTESIAN_POINT('',(72.824573519457,0.,0.));
#237=CARTESIAN_POINT('',(72.824573519457,0.,-29.65));
#238=CARTESIAN_POINT('',(76.,0.,0.));
#239=CARTESIAN_POINT('',(76.,0.,24.15));
#240=CARTESIAN_POINT('',(72.5358983848622,0.,0.));
#241=CARTESIAN_POINT('',(76.,0.,0.));
#242=CARTESIAN_POINT('',(76.,0.,-22.45));
#243=CARTESIAN_POINT('',(76.,24.15,0.));
#244=CARTESIAN_POINT('',(75.7,0.,0.));
#245=CARTESIAN_POINT('',(75.7,0.,-22.15));
#246=CARTESIAN_POINT('',(58.,0.,0.));
#247=CARTESIAN_POINT('',(58.,0.,22.15));
#248=CARTESIAN_POINT('',(0.,0.,0.));
#249=CARTESIAN_POINT('',(12.,0.,0.));
#250=CARTESIAN_POINT('',(12.,0.,19.15));
#251=CARTESIAN_POINT('',(58.,0.,0.));
#252=CARTESIAN_POINT('',(0.3,0.,0.));
#253=CARTESIAN_POINT('',(0.3,0.,19.15));
#254=CARTESIAN_POINT('',(0.,0.,0.));
#255=CARTESIAN_POINT('',(71.9585481156726,0.,0.));
#256=CARTESIAN_POINT('',(76.,0.,0.));
#257=CARTESIAN_POINT('',(0.3,0.,0.));
#258=MECHANICAL_DESIGN_GEOMETRIC_PRESENTATION_REPRESENTATION('',(#24),#259);
#259=(
GEOMETRIC_REPRESENTATION_CONTEXT(3)
GLOBAL_UNCERTAINTY_ASSIGNED_CONTEXT((#260))
GLOBAL_UNIT_ASSIGNED_CONTEXT((#266,#262,#261))
REPRESENTATION_CONTEXT('X-KOR603116038','TOP_LEVEL_ASSEMBLY_PART')
);
#260=UNCERTAINTY_MEASURE_WITH_UNIT(LENGTH_MEASURE(2.E-5),#266,
'DISTANCE_ACCURACY_VALUE','Maximum Tolerance applied to model');
#261=(
NAMED_UNIT(*)
SI_UNIT($,.STERADIAN.)
SOLID_ANGLE_UNIT()
);
#262=(
CONVERSION_BASED_UNIT('DEGREE',#264)
NAMED_UNIT(#263)
PLANE_ANGLE_UNIT()
);
#263=DIMENSIONAL_EXPONENTS(0.,0.,0.,0.,0.,0.,0.);
#264=PLANE_ANGLE_MEASURE_WITH_UNIT(PLANE_ANGLE_MEASURE(0.0174532925),#265);
#265=(
NAMED_UNIT(*)
PLANE_ANGLE_UNIT()
SI_UNIT($,.RADIAN.)
);
#266=(
LENGTH_UNIT()
NAMED_UNIT(*)
SI_UNIT(.MILLI.,.METRE.)
);
ENDSEC;
END-ISO-10303-21;
